Guitar Tabs for Aapke Pyaar Mein - Raaz Tabs

(/) Slide Up  (\) Slide Down  (h) Hammer On  (p) Pull Off  (b) Bend (r) Release (v) Vibrato (x) Muted

Tabs for Song : Aap Ke Pyar Mein

Aap Ke Pyaar Mein Hum Savarne Lage
E|-----------------------------------------------
B|--9--12-11-9-----11-9-----------------------9--
G|--------------11-------11-9--9--9--11-8--9-----
D|-----------------------------------------------
A|-----------------------------------------------
E|-----------------------------------------------

Dekh Ke Aap Ko Hum Nikhar Ne Lage
E|-----------------------------------------------
B|--9--12-11-9-----11-9-----------------------9--
G|--------------11-------11-9--9--9--11-8--9-----
D|-----------------------------------------------
A|-----------------------------------------------
E|-----------------------------------------------

Is Kadar Aap Se Hum Ko Mohabbat Huyi
E|--------11-9--12-11-9-----------------------11-9-----
B|--9--12----------------12-11-9--------11-12-------12-
G|--------------------------------11-11----------------
D|-----------------------------------------------------
A|-----------------------------------------------------
E|-----------------------------------------------------

Is Kadar Aap Se Hum Ko Mohabbat Huyi
E|--------11-14-12-11-9-----------------------11-9-----
B|--9--12----------------12-11-9--------11-12-------12-
G|--------------------------------11-11----------------
D|-----------------------------------------------------
A|-----------------------------------------------------
E|-----------------------------------------------------

Toot Ke Baajuon Mein Bikharne Lage
E|-----------------------------------------------
B|--9--12-11-9-----11-9-----------------------9--
G|--------------11-------11-9--9--9--11-8--9-----
D|-----------------------------------------------
A|-----------------------------------------------
E|-----------------------------------------------

Aap Ke Pyaar Mein Hum Savarne Lage
E|-----------------------------------------------
B|--9--12-11-9-----11-9-----------------------9--
G|--------------11-------11-9--9--9--11-8--9-----
D|-----------------------------------------------
A|-----------------------------------------------
E|-----------------------------------------------

Aap Jo Is Tarah Se Tadapayenge
E|--------11-11-12-9--12-9--------------------------
B|--9--12-------------------11-9--------9--11-9--9--
G|--------------------------------11-11-------------
D|--------------------------------------------------
A|--------------------------------------------------
E|--------------------------------------------------

Aise Aalam Mein Pagal Ho Jaayenge
E|--------11-11-12-9--12-9--------------------------
B|--9--12-------------------11-9--------9--11-9--9--
G|--------------------------------11-11-------------
D|--------------------------------------------------
A|--------------------------------------------------
E|--------------------------------------------------

Woh Mil Gaya Jiski Hume Kab Se Talash Thi
E|-----------11----------------------------------
B|--11/12-12----11-11-11-14-9--9--9-----11-9--9--
G|-----------------------------------11----------
D|-----------------------------------------------
A|-----------------------------------------------
E|-----------------------------------------------

Bechain Si In Saason Mein Janmo Ki Pyaas Thi
E|--------------------------11----------------------------------------------------------------
B|--9-----9-----9--11/12-12----11-11-11-14-9--9--9-----11-9--9-----------------9-----11----9--
G|-----11----11-------------------------------------11----------11-9--11-8--9-----11----11----
D|--------------------------------------------------------------------------------------------
A|--------------------------------------------------------------------------------------------
E|--------------------------------------------------------------------------------------------

Again Repeat Like Part One..
tabs and chords, guitar tabs, music transcription, music technology, deep learning, music information retrieval, transcribe into tabs & chords, chordify, music renditions, songsterr, reverbnation, tabulature, bollywood chords, ultimate guitar, yousician, guitar lessons, acoustic guitar, electric guitar, guitar tuner, 911 tabs