Guitar Tabs for Aapke Pyaar Main

Aap Jo Is Tarah Se Tadapayenge
E|--------10-10-8---8h10h11--8h10p8--------------------------
B|--8--11----------------------------10-------8--10-8--8-----
G|-----------------------------------------10----------------
D|-----------------------------------------------------------
A|-----------------------------------------------------------
E|-----------------------------------------------------------


Aise Aalam Mein Pagal Ho Jaayenge
E|--------10-10-8---8h10h11--8h10p8--------------------------
B|--8--11----------------------------10-------8--10-8--8-----
G|-----------------------------------------10----------------
D|-----------------------------------------------------------
A|-----------------------------------------------------------
E|-----------------------------------------------------------


Woh Mil Gaya Jiski Hume Kab Se Talash Thi
E|-----------10-------------10----------------------------
B|---8/11-11----10--8/10-10----8--8--8------8h10p8--8--8--
G|--------------------------------------10----------------
D|--------------------------------------------------------
A|--------------------------------------------------------
E|--------------------------------------------------------


Bechain Si In Saason Mein Janmo Ki Pyaas Thi
E|-----------10-------------10-------------------------------------------------
B|---8/11-11----10--8/10-10----8--8--8------8h10p8--8--8--------------------8--
G|--------------------------------------10-------------------10-8--7--8--------
D|-----------------------------------------------------------------------------
A|-----------------------------------------------------------------------------
E|-----------------------------------------------------------------------------


Aap Ke Pyaar Mein Hum Savarne Lage
E|--------------------------------------------------------------------
B|-----8--11-10-8--------10-8-----------------------------------8-----
G|--------------------10-------10----10-8--8-----10-7-----8-----------
D|--------------------------------------------------------------------
A|--------------------------------------------------------------------
E|--------------------------------------------------------------------


Dekh Ke Aap Ko Hum Nikhar Ne Lage
E|--------------------------------------------------------------
B|--8--11-10-8--------10-8--------------------------------8-----
G|-----------------10-------10----10-8--8-----10-7-----8--------
D|--------------------------------------------------------------
A|--------------------------------------------------------------
E|--------------------------------------------------------------


Is Kadar Aap Se Hum Ko Mohabbat Huvi
E|--------10----8--11-10-8--------------------------10p8--------
B|--8--11----------------------11-10-------10-11----------11----
G|--------------------------------------10----------------------
D|--------------------------------------------------------------
A|--------------------------------------------------------------
E|--------------------------------------------------------------


Toot Ke Baajuon Mein Bikharne Lage
E|-----------------------------------------------------------
B|--8--11-10-8--------10-8-----------------------------8-----
G|-----------------10-------10----10-8--8-----10-7--8--------
D|-----------------------------------------------------------
A|-----------------------------------------------------------
E|-----------------------------------------------------------



tabs and chords, guitar tabs, music contests, music covers, songsterr, reverbnation, renditions, tabulature, bollywood chords, ultimate guitar, yousician, guitar lessons, torrins, fender, gibson, acoustic guitar, electric guitar, youtube covers, gootar, guitar tuner, A-Z tabs, 911 tabs