Guitar Tabs for Aankhon Mein Teri - Om Shanti Om (2007)

Aayi aisi raat hai jo
Bohat khush-naseeb hai
E|---7/9-----7-----------------------7---7/9--------------------------------------
B|--------10----10----10\7--7-----7-----------------------12----12-12\10-10-10----
G|------------------------------------------------7/10-10-------------------------
D|--------------------------------------------------------------------------------
A|--------------------------------------------------------------------------------
E|--------------------------------------------------------------------------------


Chaahe jisse door se duniya
Vo mere kareeb hai
E|---7/9-----7-----------------------7---7/9--------------------------------------
B|--------10----10----10\7--7-----7-----------------------12----12-12\10-10-10----
G|------------------------------------------------7/10-10-------------------------
D|--------------------------------------------------------------------------------
A|--------------------------------------------------------------------------------
E|--------------------------------------------------------------------------------


Kitna kuch kehna hai
Fir bhi hai dil mein sawaal kaheen
E|-----------12-17-16-14-14-14-12-14-14-14-12-14----14-12-------14-12-12----14-12h14p12----12----------
B|--14-14-14----------------------------------------------14-12-------------------------15----15-14----
G|-----------------------------------------------------------------------------------------------------
D|-----------------------------------------------------------------------------------------------------
A|-----------------------------------------------------------------------------------------------------
E|-----------------------------------------------------------------------------------------------------


Sapnon mein jo roz kaha hai
wo phir se kahun Ya nahee
E|-----------12-17-16-14-14-14-12-14-14-14-12-14----14-12-------------------------------------------
B|--14-14-14----------------------------------------------14-12-14/15-14-12----12----14/15-14-12----
G|--------------------------------------------------------------------------------------------------
D|--------------------------------------------------------------------------------------------------
A|--------------------------------------------------------------------------------------------------
E|--------------------------------------------------------------------------------------------------


Aankhon mein teri
Ajab si, ajab si, adaayein hain
Ho...
E|-----------------------------7--10-9--7---------------------------5/7--9---9/10-9---7h-9p7-----
B|--10----10----10----------10-------------10-9---7h-9p7--------------------------------------10-
G|-----9-----9--------9--9--------------------------------9--9-----------------------------------
D|-----------------------------------------------------------------------------------------------
A|-----------------------------------------------------------------------------------------------
E|-----------------------------------------------------------------------------------------------


ankhon mein teri
ajab si, ajab si, adaayein hain
E|-----------------------------7--10-9--7--------------------------
B|--10----10----10----------10-------------10-9---7h-9p7-----------
G|-----9-----9--------9--9--------------------------------9--9-----
D|-----------------------------------------------------------------
A|-----------------------------------------------------------------
E|-----------------------------------------------------------------



Dil ko bana dein jo patang
Saansein ye teri vo hawaayein hain
E|--------------------------7-----7-----7--7--7-----------12----10----9------7h-9p7-----------
B|--------------------10-10----10----------------10----10----------------------------10-10----
G|---7/10----10-10-10-------------------------------------------------------------------------
D|--------------------------------------------------------------------------------------------
A|--------------------------------------------------------------------------------------------
E|--------------------------------------------------------------------------------------------
tabs and chords, guitar tabs, music transcription, music technology, deep learning, music information retrieval, transcribe into tabs & chords, chordify, music renditions, songsterr, reverbnation, tabulature, bollywood chords, ultimate guitar, yousician, guitar lessons, acoustic guitar, electric guitar, guitar tuner, 911 tabs