Guitar Tabs for Aankho Mein Teri - Om Shanti Om Tabs

(/) Slide Up  (\) Slide Down  (h) Hammer On  (p) Pull Off  (b) Bend (r) Release (v) Vibrato

Tabs for Song : Aankhon mein teri

aankho mein teri
E|--------------------
B|--------------------
G|--1-----1-----1-----
D|-----1-----1--------
A|--------------------
E|--------------------

ajab si ajab si adayein hai
E|-----------------------------------------
B|--------------2--1-----------------------
G|--------1--3--------3--1--0--------------
D|--1--1-----------------------3--1--1-----
A|-----------------------------------------
E|-----------------------------------------

ho.. ankhon mein teri
E|--------------------------
B|--------------------------
G|--1-----1-----1-----1-----
D|-----------1-----1--------
A|--------------------------
E|--------------------------

ajab si ajab si adayein hai
E|-----------------------------------------
B|--------------2--1-----------------------
G|--------1--3--------3--1--0--------------
D|--1--1-----------------------3--1--1-----
A|-----------------------------------------
E|-----------------------------------------

dil ko bana de jo patang 
E|--------------------------------
B|--------------------------------
G|--------------1--1--3--1--3-----
D|--2--2--2--2--------------------
A|--------------------------------
E|--------------------------------

saansein wo teri hawaein hai
E|--------------------------------------------
B|--------------4-----2--1--------------------
G|--3--1--1--1--------------3--1--3--1--1-----
D|--------------------------------------------
A|--------------------------------------------
E|--------------------------------------------

aankho mein teri
E|--------------------
B|--------------------
G|--1-----1-----1-----
D|-----1-----1--------
A|--------------------
E|--------------------

ajab si ajab si adayein hai
E|-----------------------------------------
B|--------------2--1-----------------------
G|--------1--3--------3--1--0--------------
D|--1--1-----------------------3--1--1-----
A|-----------------------------------------
E|-----------------------------------------

oooo....
E|--------------------------------
B|-----------1-----2--1-----------
G|--1-----3--------------3--1-----
D|--------------------------------
A|--------------------------------
E|--------------------------------

aankhon mein teri 
E|--------------------
B|--------------------
G|--1-----1-----1-----
D|-----1-----1--------
A|--------------------
E|--------------------

ajab si ajab si adayein hai
E|-----------------------------------------
B|--------------2--1-----------------------
G|--------1--3--------3--1--0--------------
D|--1--1-----------------------3--1--1-----
A|-----------------------------------------
E|-----------------------------------------

dil ko bana de jo patang 
E|--------------------------------
B|--------------------------------
G|--------------1--1--3--1--3-----
D|--2--2--2--2--------------------
A|--------------------------------
E|--------------------------------

saansein wo teri hawaein hai
E|--------------------------------------------
B|--------------4-----2--1--------------------
G|--3--1--1--1--------------3--1--3--1--1-----
D|--------------------------------------------
A|--------------------------------------------
E|--------------------------------------------

aayi aisi raat hai jo
E|--------------------------------------
B|--1--------1--------------------1-----
G|--------1-----1-----------3-----------
D|-----------------3-----3--------------
A|--------------------------------------
E|--------------------------------------

bohot khush naseeb hai
E|--------------------------
B|-----------------1--------
G|--------3-----3-----1-----
D|--2--2--------------------
A|--------------------------
E|--------------------------

chahe jise door se duniya
E|--------------------------------------
B|--1--------1--------------------1-----
G|--------1-----1-----------3-----------
D|-----------------3-----3--------------
A|--------------------------------------
E|--------------------------------------

wo mere karib hai
E|--------------------------
B|-----------------1--------
G|--------3-----3-----1-----
D|--2--2--------------------
A|--------------------------
E|--------------------------

kitna kuch kahna hai fir bhi hai dil mein
E|--------------4--2--1-----1-----1--1-----1--1-----
B|--1--1--1--4-----------------4--------4-----------
G|--------------------------------------------------
D|--------------------------------------------------
A|--------------------------------------------------
E|--------------------------------------------------

sawaal kahin...
E|-----------1--------------------------------
B|--2--1--------4--4-----2--4--2--4--2--1-----
G|--------3-----------------------------------
D|--------------------------------------------
A|--------------------------------------------
E|--------------------------------------------

sapno mein jo roj kaha hai wo fir se
E|--------------4--2--1-----1-----1--1-----1--1-----
B|--1--1--1--4-----------------4--------4-----------
G|--------------------------------------------------
D|--------------------------------------------------
A|--------------------------------------------------
E|--------------------------------------------------

kahu ya nahi...
E|-----------------------------------
B|--2--1-----2--1-----2--1-----------
G|--------3--------3--------3--1-----
D|-----------------------------------
A|-----------------------------------
E|-----------------------------------


tabs and chords, guitar tabs, music transcription, music technology, deep learning, music information retrieval, transcribe into tabs & chords, chordify, music renditions, songsterr, reverbnation, tabulature, bollywood chords, ultimate guitar, yousician, guitar lessons, acoustic guitar, electric guitar, guitar tuner, 911 tabs