Guitar Tabs for Aankhein Khuli Ho Ya To Band

(/) Slide Up  (\) Slide Down  (h) Hammer On  (p) Pull Off  (b) Bend (r) Release (v) Vibrato (x) Muted

Tabs for Song : 
e|--------------------9--9--------------------------------------------
b|--------10-9--10-------------7--7-----7--9--7---9/12-9--5--7---7/9--
g|--11----------------------------------------------------------------
D|--------------------------------------------------------------------
A|--------------------------------------------------------------------
E|--------------------------------------------------------------------

e|--------7---7h9--7--5--5--5--5--5--4------4h-5p4--2--2--2--0--
b|--9-----------------------------------5-----------------------
G|--------------------------------------------------------------
D|--------------------------------------------------------------
A|--------------------------------------------------------------
E|--------------------------------------------------------------

e|--2--2--2--0--2--4--5--9--4--7--4--------------
b|--------------------------------------5---5/7--
G|-----------------------------------------------
D|-----------------------------------------------
A|-----------------------------------------------
E|-----------------------------------------------

e|--2--2--2--0--2--4--5--9--4--7--4--------------
b|--------------------------------------5---5/7--
G|-----------------------------------------------
D|-----------------------------------------------
A|-----------------------------------------------
E|-----------------------------------------------

e|-----------------------------------------------7---9p7--7--7--
b|--14-15-14\12-12\7---7/10-10-10-10-7--9--10-------------------
G|--------------------------------------------------------------
D|--------------------------------------------------------------
A|--------------------------------------------------------------
E|--------------------------------------------------------------

e|-----------------------------------------------7---9p7--7--7--
b|--14-15-14\12-12\7---7/10-10-10-10-7--9--10-------------------
G|--------------------------------------------------------------
D|--------------------------------------------------------------
A|--------------------------------------------------------------
E|--------------------------------------------------------------

e|-----------------------------------------------7--------------------------------
b|--7--9--9--10-9--7---5/7--7--9-----9--10-10----------10-9--7--7---7h-9p-7\-5/7--
G|--------------------------------------------------------------------------------
D|--------------------------------------------------------------------------------
A|--------------------------------------------------------------------------------
E|--------------------------------------------------------------------------------

e|--------------------------7--------10-10-10-4--5--4--------------
b|--7--9--9--10-9--7---5/7-----9--------------------------7--7--7--
G|-----------------------------------------------------------------
D|-----------------------------------------------------------------
A|-----------------------------------------------------------------
E|-----------------------------------------------------------------

e|--------------------9--9--------
b|-----7--10-9--10----------10-10-
G|--------------------------------
D|--------------------------------
A|--------------------------------
E|--------------------------------

e|--------------------------9-----------------------
b|--7--7--7--5--7--9--10-------9--12-9--------------
g|-----------------------------------------9---9/11-
D|--------------------------------------------------
A|--------------------------------------------------
E|--------------------------------------------------

e|--------------------------9-----------------------
b|--7--7--7--5--7--9--10-------9--12-9--------------
g|-----------------------------------------9---9/11-
D|--------------------------------------------------
A|--------------------------------------------------
E|--------------------------------------------------
Song lyrics here
E|--
B|--
G|--
D|--
A|--
E|--

Song lyrics here
E|--
B|--
G|--
D|--
A|--
E|--

Paste any tab in acousterr's tab maker and we'll play it !!!
Now supports capo and sound effects for vibrato/pull-off/hammer/bends/mutes etc !!! Checkout help section
tabs and chords, guitar tabs, music contests, music covers, songsterr, reverbnation, renditions, tabulature, bollywood chords, ultimate guitar, yousician, guitar lessons, torrins, fender, gibson, acoustic guitar, electric guitar, youtube covers, gootar, guitar tuner, A-Z tabs, 911 tabs