Guitar Tabs for Aaj Dil Shayrana - Holiday tabs

(/) Slide Up  (\) Slide Down  (h) Hammer On  (p) Pull Off  (b) Bend (r) Release (v) Vibrato

Tabs for Song : Aaj Dil Shayrana

Aaj dil shaayraana shayrana 
E|-----------------------------------
B|---0h2--2--2-----------------------
G|--------------2--2--2--2--2--2--2--
D|-----------------------------------
A|-----------------------------------
E|-----------------------------------

shayrana shayrana shayrana lagta hai
E|--------------------------------------------
B|-----------------------------0--------0-----
G|--2--2--2--2--2--2--2--2--2-----2--2--------
D|--------------------------------------------
A|--------------------------------------------
E|--------------------------------------------

Udta phire dil, utarna jaane na
E|--5--5--4--2--0-----------------------
B|-----------------2--3--3--2--0--------
G|--------------------------------2-----
D|--------------------------------------
A|--------------------------------------
E|--------------------------------------

Aaj dil shaayraana shayrana 
E|-----------------------------------
B|---0h2--2--2-----------------------
G|--------------2--2--2--2--2--2--2--
D|-----------------------------------
A|-----------------------------------
E|-----------------------------------

shayrana shayrana shayrana lagta hai
E|--------------------------------------------
B|-----------------------------0--------0-----
G|--2--2--2--2--2--2--2--2--2-----2--2--------
D|--------------------------------------------
A|--------------------------------------------
E|--------------------------------------------

Bigda hua dil sambhalna jaane na
E|--5--5--4--2--0-----------------------
B|-----------------2--3--3--2--0--------
G|--------------------------------2-----
D|--------------------------------------
A|--------------------------------------
E|--------------------------------------

Jagah jagah dhoondhe tujhe
E|-----------------------------
B|-----0-----0-----0-----0-----
G|--2-----2-----2-----2--------
D|-----------------------------
A|-----------------------------
E|-----------------------------

Tujhko dhoondhe khayalon mein
E|-----------------------------------
B|--------0--2--0-----0--0-----------
G|--2--2-----------2--------2--------
D|-----------------------------4-----
A|-----------------------------------
E|-----------------------------------

Jahaan jahaan saaya tera
E|-----------------------------
B|-----0-----0-----0-----0-----
G|--2-----2-----2-----2--------
D|-----------------------------
A|-----------------------------
E|-----------------------------

chahein rahnna wahi
E|--------------------------
B|--------0--2--------------
G|--2--2--------2--2--2-----
D|--------------------------
A|--------------------------
E|--------------------------


jagah jagah dekhe tujhe
E|-----------------------------
B|-----0-----0-----0-----0-----
G|--2-----2-----2-----2--------
D|-----------------------------
A|-----------------------------
E|-----------------------------

chahaton ke hawalon mein
E|-----------------------------------
B|--------0--2--0-----0--0-----------
G|--2--2-----------2--------2--------
D|-----------------------------4-----
A|-----------------------------------
E|-----------------------------------

Jahaan jahaan paaye tujhe
E|-----------------------------
B|-----0-----0-----0-----0-----
G|--2-----2-----2-----2--------
D|-----------------------------
A|-----------------------------
E|-----------------------------

bole jannat yahi
E|-----------------------
B|--------------2--0-----
G|--2--2--2--2-----------
D|-----------------------
A|-----------------------
E|-----------------------

Aaj dil shaayraana shayrana 
E|-----------------------------------
B|---0h2--2--2-----------------------
G|--------------2--2--2--2--2--2--2--
D|-----------------------------------
A|-----------------------------------
E|-----------------------------------

shayrana shayrana shayrana lagta hai
E|--------------------------------------------
B|-----------------------------0--------0-----
G|--2--2--2--2--2--2--2--2--2-----2--2--------
D|--------------------------------------------
A|--------------------------------------------
E|--------------------------------------------

Subah dhoonda.. pukara tujhe 
E|-----------0--------------------------
B|--2--0--0-----------------0--2--------
G|--------------2--2--2--2--------2-----
D|--------------------------------------
A|--------------------------------------
E|--------------------------------------

shaam shaam shaam shaam ko
E|-----------------------------
B|-----0-----0-----0-----------
G|--2-----2-----2-----2--------
D|-----------------------4-----
A|-----------------------------
E|-----------------------------

Shaam shaam shaam shaam ko
E|-----------------------------
B|-----0-----0-----0--2--0-----
G|--2-----2-----2--------------
D|-----------------------------
A|-----------------------------
E|-----------------------------

Khud se zyaada liya hai tere
E|-----------0--------------------------
B|--2--0--0-----------------0--2--------
G|--------------2--2--2--2--------2-----
D|--------------------------------------
A|--------------------------------------
E|--------------------------------------

naam naam naam naam ko
E|--------------------------------
B|--0-----0-----0-----0-----------
G|-----2-----2-----2-----2--------
D|--------------------------4-----
A|--------------------------------
E|--------------------------------

Naam naam naam naam ko
E|--------------------------------
B|--0-----0-----0-----0--2--0-----
G|-----2-----2-----2--------------
D|--------------------------------
A|--------------------------------
E|--------------------------------

Meri baaton mein tera..
E|--2--2--2--5--4--2--0-----
B|--------------------------
G|--------------------------
D|--------------------------
A|--------------------------
E|--------------------------

Aana jaana lagta hai
E|--2--2--2--5--4--2--0-----
B|--------------------------
G|--------------------------
D|--------------------------
A|--------------------------
E|--------------------------

yahi ishqana ishqana ishqana ishqana ishqana lagta hai
E|-----------------------------------
B|---0h2--2--2-----------------------
G|--------------2--2--2--2--2--2--2--
D|-----------------------------------
A|-----------------------------------
E|-----------------------------------

ishqana ishqana ishqana lagta hai
E|--------------------------------------------
B|-----------------------------0--------0-----
G|--2--2--2--2--2--2--2--2--2-----2--2--------
D|--------------------------------------------
A|--------------------------------------------
E|--------------------------------------------


tabs and chords, guitar tabs, music transcription, music technology, deep learning, music information retrieval, transcribe into tabs & chords, chordify, music renditions, songsterr, reverbnation, tabulature, bollywood chords, ultimate guitar, yousician, guitar lessons, acoustic guitar, electric guitar, guitar tuner, 911 tabs