Guitar Tabs for Holiday

[Intro]
E|----------------------------------|---------------------------|   
B|-9-9-9--6-6-6--13-13-13--8-8-8-8--|-9-9-9--6-6-6--13-13-13--8-|   
G|-x-x-x--x-x-x---x--x--x--8-8-8-8--|-x-x-x--x-x-x---x--x--x--8-|
D|-x-x-x--x-x-x---x--x--x--x-x-x-x--|-x-x-x--x-x-x---x--x--x--x-|   
A|-8-8-8--4-4-4--11-11-11--6-6-6-6--|-8-8-8--4-4-4--11-11-11--6-|
E|----------------------------------|---------------------------|    

[Main Riff]
E|---------------------------------|---------------------------------|
B|---------------------------------|---------------------------------|
G|-10-10-10--6-6-6---------8-8-8-8-|-10-10-10--6-6-6---------8-8-8-8-|
D|-10-10-10--6-6-6--6-6-6--8-8-8-8-|-10-10-10--6-6-6--6-6-6--8-8-8-8-|
A|--8--8--8--4-4-4--6-6-6--6-6-6-6-|--8--8--8--4-4-4--6-6-6--6-6-6-6-|
E|------------------4-4-4----------|------------------4-4-4----------|

[Verse]
E|---------------------------------|---------------------------------|
B|---------------------------------|---------------------------------|
G|-10-10-10--6-6-6---------8-8-8-8-|-10-10-10--6-6-6---------5-5-5-5-|
D|-10-10-10--6-6-6--6-6-6--8-8-8-8-|-10-10-10--6-6-6--6-6-6--5-5-5-5-|
A|--8--8--8--4-4-4--6-6-6--6-6-6-6-|--8--8--8--4-4-4--6-6-6--3-3-3-3-|
E|------------------4-4-4----------|------------------4-4-4----------|

E|-------------------------------------------------------------------|
B|-------------------------------------------------------------------|
G|-10-10-10--6-6-6---------8-8-8-8--5-5-5-5-5-5-5-5-5----------------|
D|-10-10-10--6-6-6--6-6-6--8-8-8-8--5-5-5-5-5-5-5-5-5----------------|
A|--8--8--8--4-4-4--6-6-6--6-6-6-6--3-3-3-3-3-3-3-3-3----------------|
E|------------------4-4-4--------------------------------------------|

[Chorus]
E|--------------------------------------------------------------------------------|
B|--------------------------------------------------------------------------------|
G|---------6-6-6-6----------8-8-8-8-8-8-----------6-6-6-6----------5-5-5-5-5-5-5-5|
D|3-3-3-3--6-6-6-6-6-6-6-6--8-8-8-8-8-8--3-3-3-3--6-6-6-6-6-6-6-6--5-5-5-5-5-5-5-5|
A|3-3-3-3--4-4-4-4-6-6-6-6--6-6-6-6-6-6--3-3-3-3--4-4-4-4-6-6-6-6--3-3-3-3-3-3-3-3|
E|1-1-1-1----------4-4-4-4---------------1-1-1-1----------4-4-4-4-----------------|

[Bridge]
                                   'hey'
E|-------------------|------------------|-------------------|--------------------|
B|-------------------|------------------|-------------------|--------------------|
G|----------6---8----|----------8----10-|----------6---8----|----------8----10---|
D|3-3---6-6-6-8-8-10-|3-3---6-6-8-10-10-|3-3---6-6-6-8-8-10-|3-3---6-6-8-10-10-10|
A|3-3---6-6-4-8-6-10-|3-3---6-6-6-10--8-|3-3---6-6-4-8-6-10-|3-3---6-6-6-10--8-10|
E|1-1-3-4-4---6----8-|1-1-3-4-4---8-----|1-1-3-4-4---6----8-|1-1-3-4-4---8------8|

[Solo]
E|------------|----------------|-------8------8-|---------------------|
B|-6-6-6--8-9-|----------8-----|----6-----6-----|-6-6-6--8-9----------|
G|------------|-8-6-5--5---9-5-|-5--------------|------------8-6-5-5/-|
D|------------|----------------|----------------|---------------------|
A|------------|----------------|----------------|---------------------|
E|------------|----------------|----------------|---------------------|

E|------------------------|-------------------------|------------------------|
B|------------------------|-13-13-13-13-13-13-13-13-|-17-17-17-17-17-17-17-17|
G|-12-12-12-12-12-12-12-12|-------------------------|------------------------|
D|------------------------|-------------------------|------------------------|
A|------------------------|-------------------------|------------------------|
E|------------------------|-------------------------|------------------------|

E|---------------------|-----------------------------------------------------|
B|-17-17-17-17-17-17-17|—18~~~~~~~~~-----------------------------------------|
G|---------------------|-----------------------------------------------------|
D|---------------------|-----------------------------------------------------|
A|---------------------|-----------------------------------------------------|
E|---------------------|-----------------------------------------------------|

(Bass interlude is played now)
[Chorus 2]
E|-------------------------------------------------------------------------|
B|-------------------------------------------------------------------------|
G|---------6-6-6-6----------8-8-8-8-8-8-----------6-6-6-6----------5-5-5-5-|
D|3-3-3-3--6-6-6-6-6-6-6-6--8-8-8-8-8-8--3-3-3-3--6-6-6-6-6-6-6-6--5-5-5-5-|
A|3-3-3-3--4-4-4-4-6-6-6-6--6-6-6-6-6-6--3-3-3-3--4-4-4-4-6-6-6-6--3-3-3-3-|
E|1-1-1-1----------4-4-4-4---------------1-1-1-1----------4-4-4-4----------|

E|--------------------------------------------------------------------------------|
B|--------------------------------------------------------------------------------|
G|---------6-6-6-6----------8-8-8-8-8-8-----------6-6-6-6----------5-5-5-5-5-5-5-5|
D|3-3-3-3--6-6-6-6-6-6-6-6--8-8-8-8-8-8--3-3-3-3--6-6-6-6-6-6-6-6--5-5-5-5-5-5-5-5|
A|3-3-3-3--4-4-4-4-6-6-6-6--6-6-6-6-6-6--3-3-3-3--4-4-4-4-6-6-6-6--3-3-3-3-3-3-3-3|
E|1-1-1-1----------4-4-4-4---------------1-1-1-1----------4-4-4-4-----------------|

E|--------------------------------------------------------------------------------|
B|--------------------------------------------------------------------------------|
G|-5-5-5-5-5-5-5-5--5-5-5-5-5-5-5-5--5-5-5-5-5-5-5-5------------------------------|
D|-5-5-5-5-5-5-5-5--5-5-5-5-5-5-5-5--5-5-5-5-5-5-5-5------------------------------|
A|-3-3-3-3-3-3-3-3--3-3-3-3-3-3-3-3--3-3-3-3-3-3-3-3------------------------------|
E|--------------------------------------------------------------------------------|

[Outro]
E|----------------------------------|
B|----------------------------------|
G|-10-10-10--6-6-6--8------10-------|
D|-10-10-10--6-6-6--8--10--10--3~~--|
A|--8--8--8--4-4-4--6--10---8--3~~--|
E|---------------------8-------1~~--|

[Rhythm guitar]
[Intro] (after lead plays octaves play this)
E|----------------------|
B|----------------------|
G|----------------------|
D|-x-x-x-x-x-x----------|
A|-x-x-x-x-x-x----------|
E|-x-x-x-x-x-x----------|

[Main Riff]
E|---------------------------------|---------------------------------|
B|---------------------------------|---------------------------------|
G|-10-10-10--6-6-6---------8-8-8-8-|-10-10-10--6-6-6---------8-8-8-8-|
D|-10-10-10--6-6-6--6-6-6--8-8-8-8-|-10-10-10--6-6-6--6-6-6--8-8-8-8-|
A|--8--8--8--4-4-4--6-6-6--6-6-6-6-|--8--8--8--4-4-4--6-6-6--6-6-6-6-|
E|------------------4-4-4----------|------------------4-4-4----------|

[Verse]
E|---------------------------------|---------------------------------|
B|---------------------------------|---------------------------------|
G|-10-10-10--6-6-6---------8-8-8-8-|-10-10-10--6-6-6---------5-5-5-5-|
D|-10-10-10--6-6-6--6-6-6--8-8-8-8-|-10-10-10--6-6-6--6-6-6--5-5-5-5-|
A|--8--8--8--4-4-4--6-6-6--6-6-6-6-|--8--8--8--4-4-4--6-6-6--3-3-3-3-|
E|------------------4-4-4----------|------------------4-4-4----------|

E|-------------------------------------------------------------------|
B|-------------------------------------------------------------------|
G|-10-10-10--6-6-6---------8-8-8-8--5-5-5-5-5-5-5-5-5----------------|
D|-10-10-10--6-6-6--6-6-6--8-8-8-8--5-5-5-5-5-5-5-5-5----------------|
A|--8--8--8--4-4-4--6-6-6--6-6-6-6--3-3-3-3-3-3-3-3-3----------------|
E|------------------4-4-4--------------------------------------------|

[Chorus]
E|--------------------------------------------------------------------------------|
B|--------------------------------------------------------------------------------|
G|---------6-6-6-6----------8-8-8-8-8-8-----------6-6-6-6----------5-5-5-5-5-5-5-5|
D|3-3-3-3--6-6-6-6-6-6-6-6--8-8-8-8-8-8--3-3-3-3--6-6-6-6-6-6-6-6--5-5-5-5-5-5-5-5|
A|3-3-3-3--4-4-4-4-6-6-6-6--6-6-6-6-6-6--3-3-3-3--4-4-4-4-6-6-6-6--3-3-3-3-3-3-3-3|
E|1-1-1-1----------4-4-4-4---------------1-1-1-1----------4-4-4-4-----------------|

[Bridge]
                                   'hey'
E|-------------------|------------------|-------------------|--------------------|
B|-------------------|------------------|-------------------|--------------------|
G|----------6---8----|----------8----10-|----------6---8----|----------8----10---|
D|3-3---6-6-6-8-8-10-|3-3---6-6-8-10-10-|3-3---6-6-6-8-8-10-|3-3---6-6-8-10-10-10|
A|3-3---6-6-4-8-6-10-|3-3---6-6-6-10--8-|3-3---6-6-4-8-6-10-|3-3---6-6-6-10--8-10|
E|1-1-3-4-4---6----8-|1-1-3-4-4---8-----|1-1-3-4-4---6----8-|1-1-3-4-4---8------8|

[Solo]
e|---------------|----------|--------|----------------|--------------|----------|
B|---------------|----------|--------|----------------|--------------|----------|
G|--6--6---6--6--|----------|-5-5-5-5|-10-10-10-10-10-|--6--6---6--6-|----------|
D|--6--6---6--6--|-6-6-6-6-6|-5-5-5-5|-10-10-10-10-10-|--6--6---6--6-|-6-6-6-6-6|
A|--4--4---4--4--|-6-6-6-6-6|-3-3-3-3|--8--8--8--8--8-|--4--4---4--4-|-6-6-6-6-6|
E|---------------|-4-4-4-4-4|--------|----------------|--------------|-4-4-4-4-4|

E|------------------------|-------------------------|------------------------|
B|------------------------|-------------------------|------------------------|
G|-5--5--5--5--5--5--5--5-|-5--5--5--5--5--5--5--5--|-5--5--5--5--5--5--5--5-|
D|-5--5--5--5--5--5--5--5-|-5--5--5--5--5--5--5--5--|-5--5--5--5--5--5--5--5-|
A|-3--3--3--3--3--3--3--3-|-3--3--3--3--3--3--3--3--|-3--3--3--3--3--3--3--3-|
E|------------------------|-------------------------|------------------------|

E|---------------------|-----------------------------------------------------|
B|---------------------|-----------------------------------------------------|
G|-5--5--5--5--5--5--5-|-----------------------------------------------------|
D|-5--5--5--5--5--5--5-|-----------------------------------------------------|
A|-3--3--3--3--3--3--3-|-----------------------------------------------------|
E|---------------------|-----------------------------------------------------|

[Interlude] (played by bass)
This is played on the 2nd repeat of the bass interlude
E|---------------------|
B|---------------------|
G|---------------------|
D|---------------------|
A|---------------------|
E|-----------------/16-|

This is played on the 12th repeat of the bass interlude
E|-------------------|-------------|
B|-------------------|-------------|
G|----------6--3-8-7-|--3/5---3/5--|
D|----------6--3-8-7-|--3/5---3/5--|
A|----------4--1-6-5-|--1/3---1/3--|
E|-------------------|-------------|

[Chorus 2]
E|-------------------------------------------------------------------------|
B|-------------------------------------------------------------------------|
G|---------6-6-6-6----------8-8-8-8-8-8-----------6-6-6-6----------5-5-5-5-|
D|3-3-3-3--6-6-6-6-6-6-6-6--8-8-8-8-8-8--3-3-3-3--6-6-6-6-6-6-6-6--5-5-5-5-|
A|3-3-3-3--4-4-4-4-6-6-6-6--6-6-6-6-6-6--3-3-3-3--4-4-4-4-6-6-6-6--3-3-3-3-|
E|1-1-1-1----------4-4-4-4---------------1-1-1-1----------4-4-4-4----------|

E|--------------------------------------------------------------------------------|
B|--------------------------------------------------------------------------------|
G|---------6-6-6-6----------8-8-8-8-8-8-----------6-6-6-6----------5-5-5-5-5-5-5-5|
D|3-3-3-3--6-6-6-6-6-6-6-6--8-8-8-8-8-8--3-3-3-3--6-6-6-6-6-6-6-6--5-5-5-5-5-5-5-5|
A|3-3-3-3--4-4-4-4-6-6-6-6--6-6-6-6-6-6--3-3-3-3--4-4-4-4-6-6-6-6--3-3-3-3-3-3-3-3|
E|1-1-1-1----------4-4-4-4---------------1-1-1-1----------4-4-4-4-----------------|

E|--------------------------------------------------------------------------------|
B|--------------------------------------------------------------------------------|
G|-5-5-5-5-5-5-5-5--5-5-5-5-5-5-5-5--5-5-5-5-5-5-5-5------------------------------|
D|-5-5-5-5-5-5-5-5--5-5-5-5-5-5-5-5--5-5-5-5-5-5-5-5------------------------------|
A|-3-3-3-3-3-3-3-3--3-3-3-3-3-3-3-3--3-3-3-3-3-3-3-3------------------------------|
E|--------------------------------------------------------------------------------|

[Outro]
E|----------------------------------|
B|----------------------------------|
G|-10-10-10--6-6-6--8------10-------|
D|-10-10-10--6-6-6--8--10--10--3~~--|
A|--8--8--8--4-4-4--6--10---8--3~~--|
E|---------------------8-------1~~--|

tabs and chords, guitar tabs, music transcription, music technology, deep learning, music information retrieval, transcribe into tabs & chords, chordify, music renditions, songsterr, reverbnation, tabulature, bollywood chords, ultimate guitar, yousician, guitar lessons, acoustic guitar, electric guitar, guitar tuner, 911 tabs