Guitar Tabs for A Whole New World (arr By Jp Isberto)

(/) Slide Up  (\) Slide Down  (h) Hammer On  (p) Pull Off  (b) Bend (r) Release (v) Vibrato (x) Muted

Tabs for Song : 

Capo 7
Intro
E|--------------------------------------------------
B|--------------0-----------------0-----------------
G|-----------------------------0-----2--0-----------
D|--------0-----------------0--------------0-----0--
A|-----2-----------------2--------------------3--2--
E|--3-----------------3-----------------3--3--------

Verse-Chorus
E|--------------------------------------------------------------
B|--0------0h1--0-----------0-----------0------0h1--0-----0-----
G|-----2-----------0-----------2-----------2-----------0-----2--
D|--------------------0--0-----------------------------------0--
A|--------------------------------------------------------------
E|--3-----------------3-----------------3-----------------0-----

E|-----------------------------------------------------------------------
B|--------0--------------------------------------------------------0-----
G|--2--1-----2------0h2---2p0--------------0---0h2---2p0--------------2--
D|--------------4--------------4--5-----2-----------------0-----0--------
A|--3-----2--------------------5--------3--------------------------------
E|------------------0h---------------------------------------3-----------

E|--------------------------------------------------------------
B|--0------0h1--0-----------0-----------0------0h1--0-----0-----
G|-----2-----------0-----------2-----------2-----------0-----2--
D|--------------------0--0-----------------------------------0--
A|--------------------------------------------------------------
E|--3-----------------3-----------------3-----------------0-----

E|-----------------------------------------------------------------
B|--------0--------------------------------------------------0-----
G|--2--1-----2------0h2---2p0-----------------0---0h2---2p0--------
D|--------------4--------------4--5--------2-----------------------
A|--3-----2--------------------5-----------3-----------------------
E|------------------0h------------------------------------------3--
Chorus
E|--------0--------------------------0-----------------
B|--0--1-----3-----1--0--0-----0--1-----3-----1--0--0--
G|--------------0--------------------------2--0--------
D|-----------0--------------------------0--------------
A|-----------------------------------------------------
E|-----------------------3--------------------------3--

E|-----------2--0-----------2--3--------------------------------------
B|--0--1--3--------3--------3-----3--------------0--------------------
G|-----------------------0--0-----------0-----------2--0-----0-----2--
D|--------------------------------------------------------------0-----
A|-----------3--------------------------------------------0-----------
E|--3-----------------3-----3--------3-----------0--------------------

E|--------0--------------------------0--------------------------
B|--0--1-----3-----1--0--0-----0--1-----3--------1-----0--0-----
G|--------------0-----------------------------2-----------------
D|-----------0--------------------------0--0--------------------
A|--------------------------------------------------3-----------
E|-----------------------3-----------------------------------0--

E|-----------2--0-----------2--3--------------------------------------------
B|--0--1--3--------3--------3-----3-----------0------------0h1---1p0--------
G|-----------------------0--0-----------0--------2--0--2--------------0-----
D|--------------------------------------------------------------------0--4--
A|-----------3--------------3-----------------------0-----------------------
E|--3-----------------3--------------3--------0------------1h---------------
Transition to high part
E|--------------------0------3/5--3--------------------------
B|---------0h2---2p0-----3--------------------4--------------
G|---0h2--------------------------------7--5-----7-----------
D|--------------------------------------------------8--------
A|-----------------------------------------------------8-----
E|---3h---------------3------3/---------6--------------6-----
Slide to Capo 10
E|-----------------------------------------------------------------
B|--0------0h1--0-----0-----------------0--------------------------
G|-----2-----------0-----2--------2--1-----2------0h2---2p0--------
D|-----------------------0--------------------4--------------4--5--
A|--------------------------------3-----2--------------------5-----
E|--3-----------------0---------------------------0h---------------

E|-----------------------------------0-----------------------------
B|--------------------0--------0--1-----3--0--0---0h1---1p0--------
G|-----0---0h2---2p0-----------------------------------------0-----
D|--2-----------------------------------0-----------------------0--
A|--3--------------------------------------------------------------
E|-----------------------3--------------------------------------3--

E|--------0-----------------------------------2--0-----------2--3-----------
B|--0--1-----3-----1-----0--0--------0--1--3--------3--------3-----3--------
G|--------------2-----------------------------------------0--0-----------0--
D|-----------0--------0-----------------------------------------------------
A|--------------------------------------------3--------------3--------------
E|-----------------------------3-----3-----------------3--------------3-----

E|--------------------------------------------------------------0--------
B|--0------------0h1---1p0--------------0--0--0-----------0--1-----3-----
G|-----2--0--2--------------0-----2--------------2--0--------------------
D|---------------0h---------0--2--0-----------0--------0--------------0--
A|--------0--------------------------------------------------------------
E|--0--------------------------------------------------3-----------------

E|-----------------------------------2--0-----------2--3-----------
B|--0--0--0-----------------0--1--3--------3--------3-----3--------
G|-----------2--0--2--0--------------------------0--0-----------0--
D|-----------------------------------------------------------------
A|-----------------------------------3--------------3--------------
E|--------3--------0--------3-----------------3--------------3-----

E|-----------------------------------
B|--0------------0h1---1p0-----------
G|-----2--0--2--------------0--------
D|--------------------------0--4-----
A|--------0--------------------------
E|--0------------1h------------------
End
E|--------------0--------------0-----------------0--------------0--------
B|--------0--1-----3-----0--1-----3--------0--1-----3-----0--1-----3-----
G|--0--0-----------------------------------------------------------------
D|-----0-----------------------------------------------------------------
A|-----2--------------3--------------2-----------------3--------------2--
E|--0--3-----------------------------------------------------------------

E|--------0--------------0--------------------------------------------
B|--0--1-----3-----0--1-----3-----------0-----0------0h1---1p0--------
G|-----------------------------------------2-----2--------------0-----
D|-----------------------------0-----0-----------------------------0--
A|--------------3-----------------------------------------------------
E|--------------------------------------------3--------------------3--

E|-----------------------3--
B|--0------0h1---1p0-----3-----
G|-----2--------------0--0-----
D|-----------------------0-----
A|-----------------------2-----
E|--3--------------------3-----

Use manual mode to free up cursor. Paste any tab in acousterr tab maker and we'll play it !!!





























tabs and chords, guitar tabs, music transcription, music technology, deep learning, music information retrieval, transcribe into tabs & chords, chordify, music renditions, songsterr, reverbnation, tabulature, bollywood chords, ultimate guitar, yousician, guitar lessons, acoustic guitar, electric guitar, guitar tuner, 911 tabs