A Nightmare For Him - Boreal Symphony - Guitar Tabs

Aldo (Guitar I)
    
                                                                                                                                                                                                                                                                                                                                                                                                                                                                                                                                                                                                 
E|-------------------------------------------------|
B|--8--10-11-15-8--10-11-15-8--10-11-15-8--10-11-15|
G|-------------------------------------------------|
D|-------------------------------------------------|
A|-------------------------------------------------|
E|-------------------------------------------------|

    
                                                                                                                                                                                                                                                                                                                                                                                                                                                                                                                                                                                                                                                                                                                                                                                                                                                                                                                                                                                                                                                                                                                                                                                              
E|-------------------------------------------------|-----------------------------------------------|
B|--8--10-11-16-8--10-11-16-8--10-11-16-8--10-11-16|8--10-11-14-8--10-11-14-8--10-11-13-8--10-11-13|
G|-------------------------------------------------|-----------------------------------------------|
D|-------------------------------------------------|-----------------------------------------------|
A|-------------------------------------------------|-----------------------------------------------|
E|-------------------------------------------------|-----------------------------------------------|

    
                                                                                                                                                                                                                                                                                                                                                                                                                                                                                                                                                                                                                                                                                                                                                                                                                                                                                                                                                                                                                                                                                                                                                                                              
E|-------------------------------------------------|-----------------------------------------------|
B|--8--10-11-15-8--10-11-15-8--10-11-15-8--10-11-15|8--10-11-15-8--10-11-15-8--10-11-15-8--10-11-15|
G|-------------------------------------------------|-----------------------------------------------|
D|-------------------------------------------------|-----------------------------------------------|
A|-------------------------------------------------|-----------------------------------------------|
E|-------------------------------------------------|-----------------------------------------------|

    
                                                                                                                                                                                                                                                                                                                                                                                                                                                                                                                                                                                                                                                                                                                                                                                                                                                                                                                                                                                                                                                                                                                                                                                              
E|-------------------------------------------------|-----------------------------------------------|
B|--8--10-11-16-8--10-11-16-8--10-11-16-8--10-11-16|8--10-11-15-8--10-11-15-8--10-11-15-8--10-11-15|
G|-------------------------------------------------|-----------------------------------------------|
D|-------------------------------------------------|-----------------------------------------------|
A|-------------------------------------------------|-----------------------------------------------|
E|-------------------------------------------------|-----------------------------------------------|

    
                                                                                                                                                                                                                                                                                                                                                                                                                                                                                                                                                                                                 
E|-------------------------------------------------|
B|--7--8--10-15-7--8--10-15-7--8--10-15-7--8--10-15|
G|-------------------------------------------------|
D|-------------------------------------------------|
A|-------------------------------------------------|
E|-------------------------------------------------|

    
                                                                                                                                                                                                                                                                                                                                                                                                                                                                                                                                                                                                                                                                                                                                                                                                                                                                                                                                                                                                                                                                                                                                                                                              
E|-------------------------|-----------------------|
B|-------------------------|---6-------------------|
G|--------5-----5----------|------8--7--5----------|
D|--5--7-----8-----7--8--5-|5--------------8--7--5-|
A|-------------------------|-----------------------|
E|-------------------------|-----------------------|

    
                                                                                                                                                                                                                                                                                                                                                                                                                                                                                                                                                                                                                                                                                                                                                                                                                                                                                                                                                                                                                                                                                                                                                                                              
E|-------------------------------------------------|-----------------------------------------------|
B|-------------------------------------------------|-----------------------------------------------|
G|--------------5----------------------------------|---8--7--8--7--5--------5----------------------|
D|-----8--7--8-----8--7--8--5--8--7--8--5--4--7--5-|4-----------------8--7-----8--7--5--4--5--7--4-|
A|--6----------------------------------------------|-----------------------------------------------|
E|-------------------------------------------------|-----------------------------------------------|

    
                                                                                                                                                                                                                                                                                                                                                                                                                                                                                                                                                                                                                                                                                                                                                                                                                                                                                                                                                                                                                                                                                                                                                                                              
E|-------------------------------------------------|-----------------------------------------------|
B|-----------------------------------------------8-|7--8--10-8--7-----------------7----------------|
G|--------------------5--------5--7-----5--7--8----|---------------8--7--5--7--8-----8--7--5-------|
D|--5--7--8--5--7--8-----7--8--------8-------------|------------------------------------------8--7-|
A|-------------------------------------------------|-----------------------------------------------|
E|-------------------------------------------------|-----------------------------------------------|

    
                                                                                                                                                                                                                                                                                                                                                                                                                                                                                                                                                                                                 
E|-------------------------------------------------|
B|-----------------------------------------------8-|
G|--------------------5--------5--7-----5--7--8----|
D|--5--7--8--5--7--8-----7--8--------8-------------|
A|-------------------------------------------------|
E|-------------------------------------------------|

    
                                                                                                                                                                                                                                                                                                                                                                                                                                                                                                                                                                                                 
E|-------------------------------------------------|
B|--7----------------------------------------------|
G|-----8--7--8--7--5--------5----------------------|
D|--------------------8--7-----8--7--5--4--5--7--4-|
A|-------------------------------------------------|
E|-------------------------------------------------|

    
                                                                                                                                                                                                                                                                                                                                                                                                                                                                                                                                                                                                 
E|-------------------------|
B|--8----------------------|
G|--------12---------------|
D|-------------------------|
A|-------------------------|
E|-------------------------|

    
                                                                                                                                                                                                                                                                                                                                                                                                                                                                                                                                                                                                                                                                                                                                                                                                                                                                                                                                                                                                                                                                                                                                                                                              
E|-------------------------|-----------------------|
B|-------------------------|-----------------------|
G|-------------------------|------17---------------|
D|-------------------------|-----------------------|
A|--18----15---------------|17---------------------|
E|-------------------------|-----------------------|

    
                                                                                                                                                                                                                                                                                                                                                                                                                                                                                                                                                                                                                                                                                                                                                                                                                                                                                                                                                                                                                                                                                                                                                                                              
E|-------------------------------------------------|-----------------------------------------------|
B|--16-15-13-10-16-15-13-10-16-15-13-10-16-15-13-10|16-15-13-10-16-15-13-10-16-15-13-10-16-15-13-10|
G|-------------------------------------------------|-----------------------------------------------|
D|-------------------------------------------------|-----------------------------------------------|
A|-------------------------------------------------|-----------------------------------------------|
E|-------------------------------------------------|-----------------------------------------------|

    
                                                                                                                                                                                                                                                                                                                                                                                                                                                                                                                                                                                                                                                                                                                                                                                                                                                                                                                                                                                                                                                                                                                                                                                              
E|--14-11-10-8--14-11-10-8--14-11-10-8--14-11-10-8-|17-15-14-11-17-15-14-11-17-15-14-11-17-15-14-11|
B|-------------------------------------------------|-----------------------------------------------|
G|-------------------------------------------------|-----------------------------------------------|
D|-------------------------------------------------|-----------------------------------------------|
A|-------------------------------------------------|-----------------------------------------------|
E|-------------------------------------------------|-----------------------------------------------|

    
                                                                                                                                                                                                                                                                                                                                                                                                                                                                                                                                                                                                                                                                                                                                                                                                                                                                                                                                                                                                                                                                                                                                                                                              
E|-------------------------|---------1-------------|
B|-------------------------|---------0-------------|
G|-------------------------|-----------------------|
D|-------------------------|-----------------------|
A|-------------------------|-----------------------|
E|--3----------------------|-----------------------|

    
                                                                                                                                                                                                                                                                                                                                                                                                                                                                                                                                                                                                                                                                                                                                                                                                                                                                                                                                                                                                                                                                                                                                                                                              
E|-------------------------|-----------------------|
B|-------------------------|-----------------------|
G|--------5----------------|------3----------------|
D|--5-----3----------------|3-----1----------------|
A|--3----------------------|1----------------------|
E|-------------------------|-----------------------|

    
                                                                                                                                                                                                                                                                                                                                                                                                                                                                                                                                                                                                                                                                                                                                                                                                                                                                                                                                                                                                                                                                                                                                                                                              
E|-------------------------|3-----2----------------|
B|-------------------------|3-----3----------------|
G|--2----------------------|-----------------------|
D|--2-----7----------------|-----------------------|
A|--------4----------------|-----------------------|
E|-------------------------|-----------------------|

    
                                                                                                                                                                                                                                                                                                                                                                                                                                                                                                                                                                                                                                                                                                                                                                                                                                                                                                                                                                                                                                                                                                                                                                                              
E|-------------------------|-----------------------|
B|-------------------------|-----------------------|
G|--------5----------------|------3----------------|
D|--5-----3----------------|3-----1----------------|
A|--3----------------------|1----------------------|
E|-------------------------|-----------------------|

    
                                                                                                                                                                                                                                                                                                                                                                                                                                                                                                                                                                                                                                                                                                                                                                                                                                                                                                                                                                                                                                                                                                                                                                                              
E|-------------------------|3----------------------|
B|-------------------------|3----------------------|
G|--2----------------------|-----------------------|
D|--2-----7----------------|-----------------------|
A|--------4----------------|-----------------------|
E|-------------------------|-----------------------|

    
                                                                                                                                                                                                                                                                                                                                                                                                                                                                                                                                                                                                                                                                                                                                                                                                                                                                                                                                                                                                                                                                                                                                                                                              
E|--2----------------------|---------2--3--5-----8----|
B|--3----------------------|--------------------------|
G|-------------------------|--------------------------|
D|-------------------------|--------------------------|
A|-------------------------|--------------------------|
E|-------------------------|--------------------------|

    
                                                                                                                                                                                                                                                                                                                                                                                                                                                                                                                                                                                                                                                                                                                                                                                                                                                                                                                                                                                                                                                                                                                                                                                              
E|--6----------------------------|--------------------------|
B|-----------10-11-10-8----------|---------13-15-16/---19---|
G|--------------------------7----|--------------------------|
D|-------------------------------|--------------------------|
A|-------------------------------|--------------------------|
E|-------------------------------|--------------------------|

    
                                                                                                                                                                                                                                                                                                                                                                                                                                                                                                                                                                                                                                                                                                                                                                                                                                                                                                                                                                                                                                                                                                                                                                                              
E|-------------------------------|6--3--------------3--10-6--------------6--15-10----10|
B|--16-------15-16-15-------10---|------3--------3-----------8--------8-----------11---|
G|--------------------12----11---|---------3--3-----------------7--7-------------------|
D|-------------------------------|-----------------------------------------------------|
A|-------------------------------|-----------------------------------------------------|
E|-------------------------------|-----------------------------------------------------|

    
                                                                                                                                                                                                                                                                                                                                                                                                                                                                                                                                                                                                                                                                                                                                                                                                                                                                                                                                                                                                                                                                                                                                                                                              
E|--18---------------------|15-14----------------------------------14-15-17|
B|--------13----16---------|------16-15-13----------------13-15-16---------|
G|-------------------------|---------------15-14-12-14-15------------------|
D|-------------------------|-----------------------------------------------|
A|-------------------------|-----------------------------------------------|
E|-------------------------|-----------------------------------------------|

    
                                                                                                                                                                                                                                                                                                                                                                                                                                                                                                                                                                                                 
E|--17/--------------------|
B|-------------------------|
G|-------------------------|
D|-------------------------|
A|-----------21------------|
E|-------------------------|

    
                                                                                                                                                                                                                                                                                                                                                                                                                                                                                                                                                                                                                                                                                                                                                                                                                                                                                                                                                                                                                                                                                                                                                                                              
E|-------------------------|---1-------------------|
B|--------1-----1----------|------4--3--1----------|
G|--0--2-----3-----2--3--0-|0--------------3--2--0-|
D|-------------------------|-----------------------|
A|-------------------------|-----------------------|
E|-------------------------|-----------------------|

    
                                                                                                                                                                                                                                                                                                                                                                                                                                                                                                                                                                                                                                                                                                                                                                                                                                                                                                                                                                                                                                                                                                                                                                                              
E|-------------------------------------------------|2----------------------------------------------|
B|--------------1----------------------------------|---4--3--4--3--1--------1----------------------|
G|-----3--2--3-----3--2--3--0--3--2--3--0-----2--0-|------------------3--2-----3--2--0-----0--2----|
D|--1--------------------------------------4-------|------------------------------------4--------4-|
A|-------------------------------------------------|-----------------------------------------------|
E|-------------------------------------------------|-----------------------------------------------|

About Dream Theater : Dream Theater formed in 1985 under the name Majesty by John Petrucci, John Myung and Mike Portnoy . They dropped out of their studies to concentrate on the band that would eventually become Dream Theater . First album, When Dream and Day Unite, was released in 1989 . The band's highest-selling release is the follow-up album Images and Words (1992), which reached No. 61 . Dream Theater has sold over 12 million records worldwide . Along with Queensr├┐che and Fates Warning, the band has received two Grammy Award nominations . Dream Theater The group has many notable artists like John Myung,Mike Portnoy. Their music is influenced by genres - progressive metal progressive rock.

tabs and chords, guitar tabs, music transcription, music technology, deep learning, music information retrieval, transcribe into tabs & chords, chordify, music renditions, songsterr, reverbnation, tabulature, bollywood chords, ultimate guitar, yousician, guitar lessons, acoustic guitar, electric guitar, guitar tuner, 911 tabs