Guitar Tabs for Nightmare

(/) Slide Up  (\) Slide Down  (h) Hammer On  (p) Pull Off  (b) Bend (r) Release (v) Vibrato (x) Muted

Tabs & Chords
BPM : 117.0
Check Track 2 for Chord Positions 

                                  A              D#                      A              D     A  
E|--------------------0--0--0-----0--------------------------------------------------------------
B|--------------17-17----------------------------15----15----------------------15-------------15-
G|-----------------------------------------------------------------------------------------------
D|-----------------------------------------------------------------------------------------------
A|--------------------------------------17-17-------------------0--------17-17----------0--------
E|--------------------------------------------------------7-----------0--------------------------

                         E                 A                          Bm       B              
E|--------------------------------------------------------------------------------------------
B|--15-15----15-16-15----15----15-------------------15----------0--------0-----------0-----0--
G|-----------------------------------------0--------------------------16----------------------
D|--------------------------------------------------------------------------------------------
A|-----------------------------------17----------17----17-17----------------------------------
E|-----------------------------------------------------------------------------14-------------

       Bm          B                 A                       E  
E|-----------------------------15----0-----0--------------------
B|-----------15----15----17----------------------0-----0--------
G|-----16-------16----16----------------------------------------
D|--------------------------------------------------------------
A|--------------------------------------------------------------
E|-----------------------------------------------------------7--

Guitar Tabs for Nightmare






                                  A              D#                      A              D     A  
E|--------------------------------0--------------6-----------------------0--------------2-----0--
B|--------------------------------2--------------8-----------------------2--------------3-----2--
G|--------------------------------2--------------8-----------------------2--------------2-----2--
D|--------------------------------2--------------8-----------------------2--------------0-----2--
A|--------------------------------0--------------6-----------------------0--------------------0--
E|-----------------------------------------------------------------------------------------------

                         E                 A                          Bm       B              
E|-----------------------0-----------------0--------------------------2--------2--------------
B|-----------------------0-----------------2--------------------------3--------4--------------
G|-----------------------1-----------------2--------------------------4--------4--------------
D|-----------------------2-----------------2--------------------------4--------4--------------
A|-----------------------2-----------------0--------------------------2--------2--------------
E|-----------------------0--------------------------------------------------------------------

       Bm          B                 A                       E  
E|-----2-----------2-----------------0-----------------------0--
B|-----3-----------4-----------------2-----------------------0--
G|-----4-----------4-----------------2-----------------------1--
D|-----4-----------4-----------------2-----------------------2--
A|-----2-----------2-----------------0-----------------------2--
E|-----------------------------------------------------------0--

tabs and chords, guitar tabs, music transcription, music technology, deep learning, music information retrieval, transcribe into tabs & chords, chordify, music renditions, songsterr, reverbnation, tabulature, bollywood chords, ultimate guitar, yousician, guitar lessons, acoustic guitar, electric guitar, guitar tuner, 911 tabs