Guitar Tabs for A Love Theme

(/) Slide Up  (\) Slide Down  (h) Hammer On  (p) Pull Off  (b) Bend (r) Release (v) Vibrato (x) Muted

Tabs for Song : A Love Theme

[Intro]
E|-----------------------------------------------------------------------------------
B|-----------------------------------------------------------------------------------
G|-----11----7--------------11----7--------------6--7-----7--9-----9-----11h---------
D|--9--------5-----------9--------7-----------9-----9--9-----11----11----------------
A|-----------------------------------------------------------0-----------------------
E|-----------0--------------------7-----------------0--------------10----------------

   I love you         I love you            I love you          I        do        (x2)
E|--------------------------------------------------------------5--------5--------
B|--------8--------------------3--------------------8-----------5--------7--------
G|--------7--------------------2--------------------7-----------6--------6--------
D|--------9--------------------4--------------------9-----------7--------7--------
A|--------------------------------------------------------------7--------5--------
E|--------0--------------------2--------------------7-----------5--------5--------


   I love you         I love you       I love you         I    do~~~~
E|--------10----------------9-----------------7-----------------2--------------
B|--------12----------------10----------------8-----------------2--------------
G|--------11----------------9-----------------7-----------9-----3--------------
D|--------12----------------11----------------9-----------11----4--------------
A|--------10----------------9-----------------7-----------0-----4--------------
E|--------------------------------------------------------------2--------------

   I love you     I love you       I love you         I    do
E|--------7--------------6--------------4--------------2-----2--------
B|--------9--------------7--------------5--------------2-----4--------
G|--------8--------------6--------------4--------------3-----3--------
D|--------9--------------8--------------6--------------4-----4--------
A|--------7--------------6--------------4--------------4-----2--------
E|-----------------------------------------------------2-----2--------

   I love you     I love you       I love you         I    do
E|--------7--------------6--------------4-----------------------------
B|--------9--------------7--------------5-----------------------------
G|--------8--------------6--------------4--------------3-----8--------
D|--------9--------------8--------------6--------------4-----9--------
A|--------7--------------6--------------4--------------4-----9--------
E|-----------------------------------------------------2-----7--------

Bridge (rhythm picking)
E|-----------7--------------5--------------7--------------5--------------
B|-----------8--------------7--------------8--------------7--------------
G|-----------7--------------6--------------7--------------6--------------
D|-----------9--------------7--------------9--------------7--------------
A|-----------7--------------5--------------7--------------5--------------
E|-----------------------------------------------------------------------

          I can see the colours in your eyes My feelings arise    And the mirror catches on to what We feel deep inside
E|--------7--------------------------------------5-----------------7-----------------------------------5-----------------
B|--------8--------------------------------------7-----------------8-----------------------------------7-----------------
G|--------7--------------------------------------6-----------------7-----------------------------------6-----------------
D|--------9--------------------------------------7-----------------9-----------------------------------7-----------------
A|--------7--------------------------------------5-----------------7-----------------------------------5-----------------
E|-----------------------------------------------------------------------------------------------------------------------

         Playing off the colours in your eyes underneath the starry skies
E|--------7-----------------------------9-----------7-----------------5--------
B|--------8-----------------------------10----------8-----------------7--------
G|--------7-----------------------------9-----------7-----------------6--------
D|--------9-----------------------------11----------9-----------------7--------
A|--------7-----------------------------9-----------7-----------------5--------
E|-----------------------------------------------------------------------------

          I don't have to ever make believe As the gaze turns wide and bright
E|--------7--------------------------9--------------7-----------------------------------
B|--------8--------------------------10-------------8--------------------11-11-11-11-11-
G|--------7--------------------------9--------------7--------------------11-11-11-11-11-
D|--------9--------------------------11-------------9--------------------11-11-11-11-11-
A|--------7--------------------------9--------------7--------------------9--9--9--9--9--
E|--------------------------------------------------------------------------------------

 [Chorus] Baby the smile you see It's everything I want it to be      I know just how I  feel   This is how it should always be
E|--------------------------------------------------2--------2--------------------------------------------------2-----------2--------
B|--------9--------7-----------------5--------------2--------4--------9-----------7--------------5--------------2-----------4--------
G|--------8--------6-----------4-----4--------------3--------3--------8-----------6--------4-----4--------------3-----------3--------
D|--------9--------8-----------6-----6--------------4--------4--------9-----------8--------6-----6--------------4-----------4--------
A|--------7--------6-----------6-----4--------------4--------2--------7-----------6--------6-----4--------------4-----------2--------
E|-----------------------------4--------------------2--------2-----------------------------4--------------------2-----------2--------

Bridge 2
E|-----------------------------------------------------------
B|-----------8-----------7-----------8-----------7-----------
G|-----------7-----------6-----------7-----------6-----------
D|-----------9-----------7-----------9-----------7-----------
A|-----------7-----------5-----------7-----------5-----------
E|-----------------------------------------------------------

      You have always been a nice surprise of sorts for me        Baby baby you make me believe In all my dreams
E|--------------------------------------------------------------------------------------------------------------
B|-----8-----------------------------------------7-----------------8--------------------------------7-----------
G|-----7-----------------------------------------6-----------------7--------------------------------6-----------
D|-----9-----------------------------------------7-----------------9--------------------------------7-----------
A|-----7-----------------------------------------5-----------------7--------------------------------5-----------
E|--------------------------------------------------------------------------------------------------------------

       You don't ever have to second guess Right now   I do confess     When I think of love I think of you Now you know I want you too
E|--------------------------------------------------------------------------------------------------------------------------------------------------
B|-----8-----------------------------10----------8--------------7--------8-----------------------------10-------------8--------------11-11-11-11-11-
G|-----7-----------------------------9-----------7--------------6--------7-----------------------------9--------------7--------------11-11-11-11-11-
D|-----9-----------------------------11----------9--------------7--------9-----------------------------11-------------9--------------11-11-11-11-11-
A|-----7-----------------------------9-----------7--------------5--------7-----------------------------9--------------7--------------9--9--9--9--9--
E|--------------------------------------------------------------------------------------------------------------------------------------------------

------
[Back to chorus]
------


            I'm falling into the stars     I catch me a shooting star        And I place it near my heart This love won't come apart

E|--3-----------------------------3--------------------------------3-----------------------------------3--------2--------------------
B|--0--------4--------------------0--------4-----------------------0-----------------4-----------------0--------2--------------------
G|--0--------4--------------------0--------4-----------------------0-----------------4-----------------0--------3--------------------
D|--0--------4--------------------0--------4-----------------------0-----------------4-----------------0--------4--------------------
A|--2--------2--------------------2--------2-----------------------2-----------------2-----------------2--------4--------------------
E|--3-----------------------------3--------------------------------3-----------------------------------3--------2--------------------


  I love you         I love you       I love you          I        do        I love you          I love you~~~~~~~

E|-----------------------------------------------------------------------------------------------------------------------------------7--7--7--7--7-----------
B|--------8-----------------3-----------------8--------------------7-----------------8--------------------10--------------8/10-------7--7--7--7--7-----------
G|--------7-----------------2-----------------7-----------6--------6-----------------7--------------------9---------------7/9--------8--8--8--8--8-----------
D|--------9-----------------4-----------------9-----------7--------7-----------------9--------------------11--------------9/11-------9--9--9--9--9-----------
A|--------------------------------------------------------7--------5-----------------7--------------------9---------------7/9--------9--9--9--9--9-----------
E|--------0-----------------2-----------------7-----------5--------------------------------------------------------------------------7--7--7--7--7-----------

[Back to chorus x2]

Ending

E|-----3--2--0--------------0--------7-----------
B|-----0--------3--2--0--2-----------7-----------
G|-----0-----------------------------8-----------
D|-----0-----------------------------9-----------
A|-----2-----------------------------9-----------
E|-----3-----------------------------7-----------




Paste any tab in acousterr's tab maker and we'll play it !!!
Now supports capo and sound effects for vibrato/pull-off/hammer/bends/mutes etc !!! Checkout help section
tabs and chords, guitar tabs, music contests, music covers, songsterr, reverbnation, renditions, tabulature, bollywood chords, ultimate guitar, yousician, guitar lessons, torrins, fender, gibson, acoustic guitar, electric guitar, youtube covers, gootar, guitar tuner, A-Z tabs, 911 tabs