A Long Forgotten Tale - Kablash - Guitar Tabs

Electric Rythme
    
                                                                                                                                                                                                                                                                                                                                                                                                                                                                                                                                                                                                 
E|-------------------------------|
B|-------------------------------|
G|-------------------------------|
D|--4-----4-----4--4--4--4--4--4-|
A|--2-----4-----2--2--2--2--2--5-|
E|-------------------------------|

    
                                                                                                                                                                                                                                                                                                                                                                                                                                                                                                                                                                                                 
E|-------------------------------|
B|-------------------------------|
G|-------------------------------|
D|--4-----4----------------------|
A|--5-----5-----7--7--7--7--7--4-|
E|--------------5--5--5--5--5--2-|

    
                                                                                                                                                                                                                                                                                                                                                                                                                                                                                                                                                                                                 
E|-------------------------|
B|-------------------------|
G|-------------------------|
D|--4-----4--4--4--4--4--4-|
A|--2-----2--2--2--2--2--2-|
E|-------------------------|

    
                                                                                                                                                                                                                                                                                                                                                                                                                                                                                                                                                                                                                                                                                                                                                                                                                                                                                                                                                                                                                                                                                                                                                                                              
E|-------------------------|-----------------------|
B|-------------------------|-----------------------|
G|-------------------------|-----------------------|
D|-------------------------|7-----7--7--7--7--7--7-|
A|--4-----7--7--7--7--7--7-|5-----5--5--5--5--5--5-|
E|--2-----5--5--5--5--5--5-|-----------------------|

    
                                                                                                                                                                                                                                                                                                                                                                                                                                                                                                                                                                                                 
E|-------------------------|
B|-------------------------|
G|-----------------0-------|
D|--4-----2--4--0-----4----|
A|--2----------------------|
E|-------------------------|

    
                                                                                                                                                                                                                                                                                                                                                                                                                                                                                                                                                                                                 
E|-------------------------------|
B|-------------------------------|
G|-------------------------------|
D|--4-----4-----4--4--4--4--4--4-|
A|--2-----4-----2--2--2--2--2--5-|
E|-------------------------------|

    
                                                                                                                                                                                                                                                                                                                                                                                                                                                                                                                                                                                                                                                                                                                                                                                                                                                                                                                                                                                                                                                                                                                                                                                              
E|-------------------------------|-----------------------|
B|-------------------------------|-----------------------|
G|-------------------------------|-----------------------|
D|--4-----4-----2--2--2--2--2----|4-----4--4--4--4--4--2-|
A|--5-----5-----0--0--0--0--0--4-|2-----2--2--2--2--2--0-|
E|-----------------------------2-|-----------------------|

    
                                                                                                                                                                                                                                                                                                                                                                                                                                                                                                                                                                                                 
E|-------------------------|
B|-------------------------|
G|-------------------------|
D|--7-----7--7--7--7--9--7-|
A|--5-----5--5--5--5--7--5-|
E|-------------------------|

    
                                                                                                                                                                                                                                                                                                                                                                                                                                                                                                                                                                                                 
E|-------------------------|
B|-------------------------|
G|-------------------------|
D|--4-----4--4--4--4--4--2-|
A|--2-----2--2--2--2--2--0-|
E|-------------------------|

    
                                                                                                                                                                                                                                                                                                                                                                                                                                                                                                                                                                                                 
E|-------------------------|
B|-------------------------|
G|-------------------------|
D|--7-----7--7--7--7--9----|
A|--5-----5--5--5--5--7----|
E|-------------------------|

    
                                                                                                                                                                                                                                                                                                                                                                                                                                                                                                                                                                                                 
E|-------------------------------|
B|-------------------------------|
G|-------------------------------|
D|--4-----4-----4--4--4--4--4--4-|
A|--2-----4-----2--2--2--2--2--5-|
E|-------------------------------|

    
                                                                                                                                                                                                                                                                                                                                                                                                                                                                                                                                                                                                 
E|-------------------------------|
B|-------------------------------|
G|-------------------------------|
D|--4-----4-----2--2--2--2--2----|
A|--5-----5-----0--0--0--0--0--4-|
E|-----------------------------2-|

    
                                                                                                                                                                                                                                                                                                                                                                                                                                                                                                                                                                                                                                                                                                                                                                                                                                                                                                                                                                                                                                                                                                                                                                                              
E|-------------------------------------|-----------------------------------------|
B|-------------------------------------|-----------------------------------------|
G|-------------------------------------|------------------------3--3--3--3--3--3-|
D|--4--2--2--2--2--2--2--2--2--2--2--2-|6--6--6--6--6--6--6--6--1--1--1--1--1--1-|
A|--2--2--2--2--2--2--0--0--0--0--0--0-|4--4--4--4--4--4--4--4-------------------|
E|-------------------------------------|-----------------------------------------|

    
                                                                                                                                                                                                                                                                                                                                                                                                                                                                                                                                                                                                 
E|-------------------------------------|
B|-------------------------------------|
G|-------------------------------------|
D|--4--2--2--2--2--2--2--2--2--2--2--2-|
A|--2--2--2--2--2--2--0--0--0--0--0--0-|
E|-------------------------------------|

    
                                                                                                                                                                                                                                                                                                                                                                                                                                                                                                                                                                                                                                                                                                                                                                                                                                                                                                                                                                                                                                                                                                                                                                                              
E|-------------------------------------------|-----------------------------|
B|-------------------------------------------|-----------------------------|
G|-------------------------------------------|-----------------------------|
D|--6--6--6--6--6--6--6--6--4--4--4--4--4--4-|6-----6-----6--6--6--6--6--6-|
A|--4--4--4--4--4--4--4--4--2--2--2--2--2--2-|4-----6-----4--4--4--4--4--7-|
E|-------------------------------------------|-----------------------------|

    
                                                                                                                                                                                                                                                                                                                                                                                                                                                                                                                                                                                                                                                                                                                                                                                                                                                                                                                                                                                                                                                                                                                                                                                              
E|-------------------------------|-----------------------------|
B|-------------------------------|-----------------------------|
G|-------------------------------|-----------------------------|
D|--6-----6----------------------|6-----6-----6--6--6--6--6--6-|
A|--7-----7-----9--9--9--9--9--6-|4-----6-----4--4--4--4--4--7-|
E|--------------7--7--7--7--7--4-|-----------------------------|

    
                                                                                                                                                                                                                                                                                                                                                                                                                                                                                                                                                                                                                                                                                                                                                                                                                                                                                                                                                                                                                                                                                                                                                                                              
E|-------------------------------|-----------------------------|
B|-------------------------------|-----------------------------|
G|-------------------------------|-----------------------------|
D|--6-----6----------------------|6-----6-----6--6--6--6--6--6-|
A|--7-----7-----9--9--9--9--9--6-|4-----6-----4--4--4--4--4--7-|
E|--------------7--7--7--7--7--4-|-----------------------------|

    
                                                                                                                                                                                                                                                                                                                                                                                                                                                                                                                                                                                                                                                                                                                                                                                                                                                                                                                                                                                                                                                                                                                                                                                              
E|-------------------------------|-----------------------------|
B|-------------------------------|-----------------------------|
G|-------------------------------|-----------------------------|
D|--6-----6----------------------|6-----6-----6--6--6--6--6--6-|
A|--7-----7-----9--9--9--9--9--6-|4-----6-----4--4--4--4--4--7-|
E|--------------7--7--7--7--7--4-|-----------------------------|

    
                                                                                                                                                                                                                                                                                                                                                                                                                                                                                                                                                                                                                                                                                                                                                                                                                                                                                                                                                                                                                                                                                                                                                                                              
E|-------------------------------|-----------------------|
B|-------------------------------|-----------------------|
G|-------------------------------|-----------------------|
D|--6-----6----------------------|6-----6--6--6-----6--6-|
A|--7-----7-----9--9--9--9--9--6-|4-----4--4--4-----4--6-|
E|--------------7--7--7--7--7--4-|-----------------------|

    
                                                                                                                                                                                                                                                                                                                                                                                                                                                                                                                                                                                                                                                                                                                                                                                                                                                                                                                                                                                                                                                                                                                                                                                              
E|-------------------------|-----------------------|
B|-------------------------|-----------------------|
G|-------------------------|-----------------------|
D|--4-----4--4--4--4--4--4-|2-----2--2--2--2--2--2-|
A|--2-----2--2--4--2--2--2-|0-----0--0--0--0--0--0-|
E|-------------------------|-----------------------|

    
                                                                                                                                                                                                                                                                                                                                                                                                                                                                                                                                                                                                 
E|-------------------------|
B|-------------------------|
G|-------------------------|
D|-------------------------|
A|--4-----4--4--2-----2----|
E|--2-----2--2--0-----0----|

    
                                                                                                                                                                                                                                                                                                                                                                                                                                                                                                                                                                                                                                                                                                                                                                                                                                                                                                                                                                                                                                                                                                                                                                                              
E|-------------------------|-----------------------|
B|-------------------------|-----------------------|
G|-------------------------|-----------------------|
D|--6--6--6--6--6--6--6--6-|4--4--4--4--4--4--4--4-|
A|--4--4--4--4--4--4--4--4-|2--2--2--2--2--2--2--2-|
E|-------------------------|-----------------------|

    
                                                                                                                                                                                                                                                                                                                                                                                                                                                                                                                                                                                                 
E|----------------------------|
B|----------------------------|
G|----------------------------|
D|--2--2--2--2--2--2--2--2--2-|
A|--0--0--0--0--0--0--0--0--0-|
E|----------------------------|

    
                                                                                                                                                                                                                                                                                                                                                                                                                                                                                                                                                                                                 
E|-------------------------|
B|-------------------------|
G|-------------------------|
D|-------------------------|
A|--4--4--4--4--2--2--2--2-|
E|--2--2--2--2--0--0--0--0-|
tabs and chords, guitar tabs, music transcription, music technology, deep learning, music information retrieval, transcribe into tabs & chords, chordify, music renditions, songsterr, reverbnation, tabulature, bollywood chords, ultimate guitar, yousician, guitar lessons, acoustic guitar, electric guitar, guitar tuner, 911 tabs