A Change Of Seasons Iii: Carpe Diem - Dream Theater - Guitar Tabs

Petrucci - Nylon Acoustic
    
                                                                                                                                                                                                                                                                                                                                                                                                                                                                                                                                                                                                                                                                                                                                                                                                                                                                                                                                                                                                                                                                                                                                                                                              
E|--------------0----------|------------0----------|
B|-----------------0-------|---------------0-------|
G|-----------5--------5----|---------5--------5----|
D|--------9--------------9-|------9--------------9-|
A|-----7-------------------|---7-------------------|
E|--0----------------------|0----------------------|

    
                                                                                                                                                                                                                                                                                                                                                                                                                                                                                                                                                                                                                                                                                                                                                                                                                                                                                                                                                                                                                                                                                                                                                                                              
E|--------------0----------|------------0----------|
B|-----------------0-------|---------------0-------|
G|-----------7--------7----|---------7--------7----|
D|--------10-------------10|------10-------------10|
A|-----9-------------------|---8-------------------|
E|--0----------------------|0----------------------|

    
                                                                                                                                                                                                                                                                                                                                                                                                                                                                                                                                                                                                                                                                                                                                                                                                                                                                                                                                                                                                                                                                                                                                                                                              
E|-------------------------|-----------------------|
B|--------------8----------|------------7----------|
G|-----------5-----5-------|---------5-----5-------|
D|--------9-----------9----|------9-----------9----|
A|-----7-----------------7-|---7-----------------7-|
E|--0----------------------|0----------------------|

    
                                                                                                                                                                                                                                                                                                                                                                                                                                                                                                                                                                                                                                                                                                                                                                                                                                                                                                                                                                                                                                                                                                                                                                                              
E|--------------7----------|------------5----------|
B|-----------5-----5-------|---------3-------------|
G|--------0-----------0----|------0----------------|
D|-----4-----------------4-|---4-------------------|
A|--5----------------------|3----------------------|
E|-------------------------|-----------------------|

    
                                                                                                                                                                                                                                                                                                                                                                                                                                                                                                                                                                                                                                                                                                                                                                                                                                                                                                                                                                                                                                                                                                                                                                                              
E|-----------0-------------|---------0-------------|
B|--------------0----------|------------0----------|
G|--------5--------5-------|------5--------5-------|
D|-----7-------------------|---7-------------------|
A|--0----------------------|8----------------------|
E|-------------------------|-----------------------|

    
                                                                                                                                                                                                                                                                                                                                                                                                                                                                                                                                                                                                                                                                                                                                                                                                                                                                                                                                                                                                                                                                                                                                                                                              
E|-----------0-------------|---------0-------------|
B|--------------0----------|------------0----------|
G|--------5--------5-------|------7--------7-------|
D|-----7-------------------|---6-------------------|
A|--6----------------------|7----------------------|
E|-------------------------|-----------------------|

    
                                                                                                                                                                                                                                                                                                                                                                                                                                                                                                                                                                                                                                                                                                                                                                                                                                                                                                                                                                                                                                                                                                                                                                                              
E|-----------0-------------|---------0-------------|
B|--------------0----------|------------0----------|
G|--------5--------5-------|------5--------5-------|
D|-----7-------------------|---7-------------------|
A|--0----------------------|8----------------------|
E|-------------------------|-----------------------|

    
                                                                                                                                                                                                                                                                                                                                                                                                                                                                                                                                                                                                                                                                                                                                                                                                                                                                                                                                                                                                                                                                                                                                                                                              
E|-----------0-------------|---------0-------------|
B|--------------0----------|------------0----------|
G|--------5--------5-------|------7--------7-------|
D|-----7-------------------|---6-------------------|
A|--6----------------------|7----------------------|
E|-------------------------|-----------------------|

    
                                                                                                                                                                                                                                                                                                                                                                                                                                                                                                                                                                                                                                                                                                                                                                                                                                                                                                                                                                                                                                                                                                                                                                                              
E|-----------0-------------|---------0-------------|
B|--------------0----------|------------0----------|
G|--------5--------5-------|------5--------5-------|
D|-----7-------------------|---7-------------------|
A|--0----------------------|8----------------------|
E|-------------------------|-----------------------|

    
                                                                                                                                                                                                                                                                                                                                                                                                                                                                                                                                                                                                                                                                                                                                                                                                                                                                                                                                                                                                                                                                                                                                                                                              
E|-----------0-------------|---------0-------------|
B|--------------0----------|------------0----------|
G|--------5--------5-------|------7--------7-------|
D|-----7-------------------|---6-------------------|
A|--6----------------------|7----------------------|
E|-------------------------|-----------------------|

    
                                                                                                                                                                                                                                                                                                                                                                                                                                                                                                                                                                                                                                                                                                                                                                                                                                                                                                                                                                                                                                                                                                                                                                                              
E|-----------0-------------|-----------------------|
B|--------------0----------|---------0-------------|
G|--------5--------5-------|------5----------------|
D|-----7-------------------|---7-----------7-------|
A|--0----------------------|8-----------7----------|
E|-------------------------|-----------------------|

    
                                                                                                                                                                                                                                                                                                                                                                                                                                                                                                                                                                                                                                                                                                                                                                                                                                                                                                                                                                                                                                                                                                                                                                                              
E|-------------------------|---------0-------------|
B|-----------0-------------|-----------------------|
G|--------5-----5----------|------4-----4----------|
D|-----7-----------7-------|---2-----------2-------|
A|--6----------------------|-----------------------|
E|-------------------------|4----------------------|

    
                                                                                                                                                                                                                                                                                                                                                                                                                                                                                                                                                                                                                                                                                                                                                                                                                                                                                                                                                                                                                                                                                                                                                                                              
E|-----------0-------------|---------0-------------|
B|--------6-----6----------|------6-----6----------|
G|-----7-----------7-------|---5-----------5-------|
D|--0----------------------|0----------------------|
A|-------------------------|-----------------------|
E|-------------------------|-----------------------|

    
                                                                                                                                                                                                                                                                                                                                                                                                                                                                                                                                                                                                                                                                                                                                                                                                                                                                                                                                                                                                                                                                                                                                                                                              
E|-----------0-------------|-----------------------|
B|--------11----11---------|10----8-----6----------|
G|-----10----------10------|---7-----7-----7-------|
D|--0----------------------|-----------------------|
A|-------------------------|-----------------------|
E|-------------------------|-----------------------|

    
                                                                                                                                                                                                                                                                                                                                                                                                                                                                                                                                                                                                                                                                                                                                                                                                                                                                                                                                                                                                                                                                                                                                                                                              
E|-----------0-------------|---------0-------------|
B|--------6-----6----------|------6-----6----------|
G|-----3-----------3-------|---2-----------2-------|
D|--0----------------------|0----------------------|
A|-------------------------|-----------------------|
E|-------------------------|-----------------------|

    
                                                                                                                                                                                                                                                                                                                                                                                                                                                                                                                                                                                                                                                                                                                                                                                                                                                                                                                                                                                                                                                                                                                                                                                              
E|-----------0-------------|-----------------------|
B|--------3-----3----------|2-----3-----5----------|
G|-----1-----------1-------|---2-----2-----2-------|
D|--0----------------------|-----------------------|
A|-------------------------|-----------------------|
E|-------------------------|-----------------------|

    
                                                                                                                                                                                                                                                                                                                                                                                                                                                                                                                                                                                                                                                                                                                                                                                                                                                                                                                                                                                                                                                                                                                                                                                              
E|-----------5-------------|---------8-------------|
B|--------6-----6----------|------6-----6----------|
G|-----7-----------7-------|---5-----------5-------|
D|--0----------------------|0----------------------|
A|-------------------------|-----------------------|
E|-------------------------|-----------------------|

    
                                                                                                                                                                                                                                                                                                                                                                                                                                                                                                                                                                                                                                                                                                                                                                                                                                                                                                                                                                                                                                                                                                                                                                                              
E|-----------13------------|12-------10------------|
B|--------11----11---------|---8--------6----------|
G|-----10----------10------|------9--------7-------|
D|--0----------------------|-----------------------|
A|-------------------------|-----------------------|
E|-------------------------|-----------------------|

    
                                                                                                                                                                                                                                                                                                                                                                                                                                                                                                                                                                                                                                                                                                                                                                                                                                                                                                                                                                                                                                                                                                                                                                                              
E|-----------0-------------|---------0-------------|
B|--------6-----6----------|------6-----6----------|
G|-----3-----------3-------|---2-----------2-------|
D|--0----------------------|0----------------------|
A|-------------------------|-----------------------|
E|-------------------------|-----------------------|

    
                                                                                                                                                                                                                                                                                                                                                                                                                                                                                                                                                                                                                                                                                                                                                                                                                                                                                                                                                                                                                                                                                                                                                                                              
E|-----------0-------------|---------0-------------|
B|--------------6----------|------------6----------|
G|--------5--------5-------|------5--------5-------|
D|-----5-------------------|---5-------------------|
A|--3----------------------|0----------------------|
E|-------------------------|-----------------------|

    
                                                                                                                                                                                                                                                                                                                                                                                                                                                                                                                                                                                                                                                                                                                                                                                                                                                                                                                                                                                                                                                                                                                                                                                              
E|-------------------------|1----------------------|
B|-----------1-------------|---1-----1-------------|
G|--------3-----3----------|------3-----3----------|
D|-----3-----------3-------|---------------3-------|
A|--1----------------------|-----------------------|
E|-------------------------|-----------------------|

    
                                                                                                                                                                                                                                                                                                                                                                                                                                                                                                                                                                                                                                                                                                                                                                                                                                                                                                                                                                                                                                                                                                                                                                                              
E|-----------0-------------|---------0-------------|
B|--------------6----------|------------6----------|
G|--------5--------5-------|------5--------5-------|
D|-----5-------------------|---5-------------------|
A|--3----------------------|0----------------------|
E|-------------------------|-----------------------|

    
                                                                                                                                                                                                                                                                                                                                                                                                                                                                                                                                                                                                                                                                                                                                                                                                                                                                                                                                                                                                                                                                                                                                                                                              
E|-------------------------|-----------------------|
B|-----------4-------------|3----------------------|
G|--------3-----3----------|-----------------------|
D|-----3-----------3-------|-----------------------|
A|--1----------------------|-----------------------|
E|-------------------------|-----------------------|

    
                                                                                                                                                                                                                                                                                                                                                                                                                                                                                                                                                                                                                                                                                                                                                                                                                                                                                                                                                                                                                                                                                                                                                                                              
E|-------------------------|-----------------------|
B|-----------0-------------|-----------------------|
G|--------------3----------|-----------------------|
D|--------4--------4-------|------4----------------|
A|-----4-------------------|---4--------4----------|
E|--2----------------------|0--------3-------------|

    
                                                                                                                                                                                                                                                                                                                                                                                                                                                                                                                                                                                                                                                                                                                                                                                                                                                                                                                                                                                                                                                                                                                                                                                              
E|-----------0-------------|-----------------------|
B|--------------0----------|-----------------------|
G|-----------------3-------|-----------------------|
D|--------4----------------|------4----------------|
A|-----4-------------------|---4--------4----------|
E|--2----------------------|0--------3-------------|

    
                                                                                                                                                                                                                                                                                                                                                                                                                                                                                                                                                                                                                                                                                                                                                                                                                                                                                                                                                                                                                                                                                                                                                                                              
E|-------------------------|-----------------------|
B|-----------0-------------|-----------------------|
G|--------------3----------|-----------------------|
D|--------4--------4-------|------4-----2----------|
A|-----4-------------------|---4-----0-------------|
E|--2----------------------|0----------------------|

    
                                                                                                                                                                                                                                                                                                                                                                                                                                                                                                                                                                                                                                                                                                                                                                                                                                                                                                                                                                                                                                                                                                                                                                                              
E|-------------------------|-----------------------|
B|-----------1-------------|---------3-------------|
G|--------------0----------|------------0----------|
D|--------2--------2-------|------4----------------|
A|-----3-------------------|---5-------------------|
E|--3----------------------|5----------------------|

    
                                                                                                                                                                                                                                                                                                                                                                                                                                                                                                                                                                                                                                                                                                                                                                                                                                                                                                                                                                                                                                                                                                                                                                                              
E|-------------------------|-----------------------|
B|-----------5-------------|---------7-------------|
G|--------5-----5----------|------7-----7----------|
D|-----5-----------5-------|---7-------------------|
A|--7----------------------|9----------------------|
E|-------------------------|-----------------------|

    
                                                                                                                                                                                                                                                                                                                                                                                                                                                                                                                                                                                                                                                                                                                                                                                                                                                                                                                                                                                                                                                                                                                                                                                              
E|-----------0-------------|---------0-------------|
B|--------------8----------|------------10---------|
G|--------9--------9-------|------11-------11------|
D|-----10------------------|---12------------------|
A|--10---------------------|12---------------------|
E|-------------------------|-----------------------|

    
                                                                                                                                                                                                                                                                                                                                                                                                                                                                                                                                                                                                                                                                                                                                                                                                                                                                                                                                                                                                                                                                                                                                                                                              
E|-----------0-------------|---------0-------------|
B|--------------8----------|------------8----------|
G|-----------------0-------|---------------0-------|
D|--------9----------------|------9----------------|
A|-----10------------------|---10------------------|
E|--10---------------------|10---------------------|

About Octavarium (song) : "Octavarium" is a song by progressive metal/rock band Jordan Rudess uses his Haken Continuum Fingerboard and lap steel guitar . Octavarium pays homage to progressive rock bands such as Pink Floyd . Octavarium has five parts, and starts out octave higher than The Root Of All It was released in 2005. It was released as part of album Octavarium. The genre is progressive rock. The track was release in 2005. The track has an affiliation to the band(s) - Dream Theater.

About Dream Theater : Dream Theater formed in 1985 under the name Majesty by John Petrucci, John Myung and Mike Portnoy . They dropped out of their studies to concentrate on the band that would eventually become Dream Theater . First album, When Dream and Day Unite, was released in 1989 . The band's highest-selling release is the follow-up album Images and Words (1992), which reached No. 61 . Dream Theater has sold over 12 million records worldwide . Along with Queensr├┐che and Fates Warning, the band has received two Grammy Award nominations . Dream Theater The group has many notable artists like John Myung,Mike Portnoy. Their music is influenced by genres - progressive metal progressive rock.

About Octavarium : Octavarium is the eighth studio album by American progressive metal band Dream Theater . Recorded between September 2004 and February 2005, it was the band's final release with Atlantic Records . With it, the band decided to create a classic Dream Theater album . Octavarium peaked in the top five in the Finnish, Italian, and Swedish charts . Dream Theater promoted the album on a year-long world tour . Critics found some of the songwriting to be inconsistent . The Hit Factory in New York City was the last band to record there before it was permanently closed . The studio in which artists such as Michael Jackson, Madonna, Stevie Wonder and John Lennon had recorded . It had an affiliation to bands - Octavarium,Dream Theater. Its music is influenced by genres - progressive metal , progressive rock.

tabs and chords, guitar tabs, music transcription, music technology, deep learning, music information retrieval, transcribe into tabs & chords, chordify, music renditions, songsterr, reverbnation, tabulature, bollywood chords, ultimate guitar, yousician, guitar lessons, acoustic guitar, electric guitar, guitar tuner, 911 tabs