Guitar Tabs for 4321

(/) Slide Up  (\) Slide Down  (h) Hammer On  (p) Pull Off  (b) Bend (r) Release (v) Vibrato (x) Muted

Tabs for Song : 

Song lyrics here
E|--------------------------------------------------------------12-11-10-9--
B|--------------------------------------------------12-11-10-9--------------
G|--------------------------------------12-11-10-9--------------------------
D|--------------------------12-11-10-9--------------------------------------
A|--------------12-11-10-9--------------------------------------------------
E|--12-11-10-9--------------------------------------------------------------

E|--11-10-9--8--------------------------------------------------------------
B|--------------11-10-9--8--------------------------------------------------
G|--------------------------11-10-9--8--------------------------------------
D|--------------------------------------11-10-9--8--------------------------
A|--------------------------------------------------11-10-9--8--------------
E|--------------------------------------------------------------11-10-9--8--

E|--------------------------------------------------------------10-9--8--7--
B|--------------------------------------------------10-9--8--7--------------
G|--------------------------------------10-9--8--7--------------------------
D|--------------------------10-9--8--7--------------------------------------
A|--------------10-9--8--7--------------------------------------------------
E|--10-9--8--7--------------------------------------------------------------

E|--9--8--7--6--------------------------------------------------------------
B|--------------9--8--7--6--------------------------------------------------
G|--------------------------9--8--7--6--------------------------------------
D|--------------------------------------9--8--7--6--------------------------
A|--------------------------------------------------9--8--7--6--------------
E|--------------------------------------------------------------9--8--7--6--

E|--------------------------------------------------------------8--7--6--5--
B|--------------------------------------------------8--7--6--5--------------
G|--------------------------------------8--7--6--5--------------------------
D|--------------------------8--7--6--5--------------------------------------
A|--------------8--7--6--5--------------------------------------------------
E|--8--7--6--5--------------------------------------------------------------

E|--7--6--5--4--------------------------------------------------------------
B|--------------7--6--5--4--------------------------------------------------
G|--------------------------7--6--5--4--------------------------------------
D|--------------------------------------7--6--5--4--------------------------
A|--------------------------------------------------7--6--5--4--------------
E|--------------------------------------------------------------7--6--5--4--

E|--------------------------------------------------------------6--5--4--3--
B|--------------------------------------------------6--5--4--3--------------
G|--------------------------------------6--5--4--3--------------------------
D|--------------------------6--5--4--3--------------------------------------
A|--------------6--5--4--3--------------------------------------------------
E|--6--5--4--3--------------------------------------------------------------

E|--5--4--3--2--------------------------------------------------------------
B|--------------5--4--3--2--------------------------------------------------
G|--------------------------5--4--3--2--------------------------------------
D|--------------------------------------5--4--3--2--------------------------
A|--------------------------------------------------5--4--3--2--------------
E|--------------------------------------------------------------5--4--3--2--

E|--------------------------------------------------------------4--3--2--1--
B|--------------------------------------------------4--3--2--1--------------
G|--------------------------------------4--3--2--1--------------------------
D|--------------------------4--3--2--1--------------------------------------
A|--------------4--3--2--1--------------------------------------------------
E|--4--3--2--1--------------------------------------------------------------

Song lyrics here
E|--
B|--
G|--
D|--
A|--
E|--

Paste any tab in acousterr's tab maker and we'll play it !!!
Now supports capo and sound effects for vibrato/pull-off/hammer/bends/mutes etc !!! Checkout help section
tabs and chords, guitar tabs, music transcription, music technology, deep learning, music information retrieval, transcribe into tabs & chords, chordify, music renditions, songsterr, reverbnation, tabulature, bollywood chords, ultimate guitar, yousician, guitar lessons, acoustic guitar, electric guitar, guitar tuner, 911 tabs