Guitar Tabs for 10000 Reasons

(/) Slide Up  (\) Slide Down  (h) Hammer On  (p) Pull Off  (b) Bend (r) Release (v) Vibrato (x) Muted

Tabs for Song : capo on 4th fret
BPM : 200

Song lyrics here
E|------3/5------5\3--0--------------0--------------------------------------3--0-----------------------------------
B|--5-----6------6\5--------1-----3--------3--1-----------------------1--------------------1--3-----------------3--
G|-----------5--------------0--------------------2--------2------1/2-----2-----------------0--------------0--------
D|-----------------------2-----2--------0------------0p2-----2---2/3------------------0p2--------------------0-----
A|--------------------3--------------------------0--------------------------------3------------------0p2-----------
F|--------0-----------------------2------------------------------0/------------------------------2-----------------

E|------3/5------5\3--0-----------5-----7-----0-----------------------0-----------------------------------
B|--5-----6------6\5--------1-----6--------------------1------1p3--------3--------1--1-----------------1--
G|-----------5--------------0-----5--5-----0-----------2------2p------------------0--------------0-----0--
D|-----------------------2-----2------------------0p2-----2---3p---3-----------0------------0p2-----2-----
A|--------------------3-----------------------0-----------------------------------------3-----------------
F|--------0-----------------------0-----2---------------------0p------------2-----------------------------

Song lyrics here
E|--
B|--
G|--
D|--
A|--
F|--

Paste any tab in acousterr's tab maker and we'll play it !!!
Now supports capo and sound effects for vibrato/pull-off/hammer/bends/mutes etc !!! Checkout help section
tabs and chords, guitar tabs, music transcription, music technology, deep learning, music information retrieval, transcribe into tabs & chords, chordify, music renditions, songsterr, reverbnation, tabulature, bollywood chords, ultimate guitar, yousician, guitar lessons, acoustic guitar, electric guitar, guitar tuner, 911 tabs