Guitar Tabs for 10000 Reason

E|---------0-----0-----------------------------------------------------------------------------2--
B|--0---3--1-----1--3--0-----0--------0--------------------------3--0--------------------3--------
G|---------0-----0-----0-----0-----2-----2--0--------------------------------0--2-----2-----2-----
D|---------------------0-----0-----0-----0-----2-----2--------2-----------0--------0--------------
A|---------3-----------------------------------2-----2--2--3--------------------------------------
E|---------------------3-----3-----------------------------------------3--------------------------

E|---------0-----0----------------0-----2----------------------------------------------------------
B|--0---3--1-----1--3--0-----0----1-----3-----0------------------0---------------------------------
G|---------0-----0-----0-----0----0-----2-----0--------0--0--2------2-------0--0-------------------
D|---------------------0-----0----------0-----2---------------------0------------------------------
A|---------3----------------------3-----------------------3----------------------------------------
E|---------------------3-----3----------------0--------------------------------3-----3-----3-----3-

E|-----------------------------------------------------------------------------------------------------------
B|------------------------------------0----0-----------------------------------------0----0------------1----1
G|-----0-----0------0-----------2----------0------2--0------0--0--0--0---0--2--2----------0--------0---0-----
D|--0--------------------2--0---0----------------------------------------------0-----------------------------
A|-----3-----3-------------------------------------------3-----3---------------------------------------3-----
E|------------------3----------------------0-------------------------3---3----------------0------------------

E|------------------------------------------------------------------------------------------------
B|--1---0---0--------------------0------------------------------------0---------------------------
G|--0-------0----2---0--2--0--2-----2---0--------0--0--0--0--0--0--2--0-----2-----0-----0-----0---
D|----------------------0-----0-------------------------------------------------------------------
A|--3-----------------------------------------3-----3---------------------------------------------
E|----------3----3------------------0---------------------3-----3-----0-----------3-----3-----3---


E|---------0-----0-----------------------------------------------------------------------------2--
B|--0---3--1-----1--3--0-----0--------0--------------------------3--0--------------------3--------
G|---------0-----0-----0-----0-----2-----2--0--------------------------------0--2-----2-----2-----
D|---------------------0-----0-----0-----0-----2-----2--------2-----------0--------0--------------
A|---------3-----------------------------------2-----2--2--3--------------------------------------
E|---------------------3-----3-----------------------------------------3--------------------------

E|---------0-----0----------------0-----2----------------------------------------
B|--0---3--1-----1--3--0-----0----1-----3-----0------------------0---------------
G|---------0-----0-----0-----0----0-----2-----0--------0--0--2------2-------0--0-
D|---------------------0-----0----------0-----2---------------------0------------
A|---------3----------------------3-----------------------3----------------------
E|---------------------3-----3----------------0--------------------------------3-

E|-----------------------------------------------------------------------------------------------------------
B|------------------------------------0----0-----------------------------------------0----0------------1----1
G|-----0-----0------0-----------2----------0------2--0------0--0--0--0---0--2--2----------0--------0---0-----
D|--0--------------------2--0---0----------------------------------------------0-----------------------------
A|-----3-----3-------------------------------------------3-----3---------------------------------------3-----
E|------------------3----------------------0-------------------------3---3----------------0------------------

E|------------------------------------------------------------------------------------------------
B|--1---0---0--------------------0------------------------------------0---------------------------
G|--0-------0----2---0--2--0--2-----2---0--------0--0--0--0--0--0--2--0-----2-----0-----0-----0---
D|----------------------0-----0-------------------------------------------------------------------
A|--3-----------------------------------------3-----3---------------------------------------------
E|----------3----3------------------0---------------------3-----3-----0-----------3-----3-----3---


E|---------0-----0-----------------------------------------------------------------------------2--
B|--0---3--1-----1--3--0-----0--------0--------------------------3--0--------------------3--------
G|---------0-----0-----0-----0-----2-----2--0--------------------------------0--2-----2-----2-----
D|---------------------0-----0-----0-----0-----2-----2--------2-----------0--------0--------------
A|---------3-----------------------------------2-----2--2--3--------------------------------------
E|---------------------3-----3-----------------------------------------3--------------------------

E|---------0-----0----------------0-----2------------------------------------------
B|--0---3--1-----1--3--0-----0----1-----3-----0------------------0-----------------
G|---------0-----0-----0-----0----0-----2-----0--------0--0--2------2-------0--0---
D|---------------------0-----0----------0-----2---------------------0--------------
A|---------3----------------------3-----------------------3------------------------
E|---------------------3-----3----------------0--------------------------------3---








































Paste any tab in acousterr's tab maker and we'll play it !!!
Now supports capo and sound effects for vibrato/pull-off/hammer/bends/mutes etc !!! Checkout help section
tabs and chords, guitar tabs, music transcription, music technology, deep learning, music information retrieval, transcribe into tabs & chords, chordify, music renditions, songsterr, reverbnation, tabulature, bollywood chords, ultimate guitar, yousician, guitar lessons, acoustic guitar, electric guitar, guitar tuner, 911 tabs