Guitar Tabs for 06 - Quem Procurar Esta Casa

QUEM PROCURAR ESTA CASA QUEM AQUI NELA CHEGAR
E|--------------------------------------------------------------------
B|--------0--1--0-----------------------------0--1--0-----------------
G|--2--2-----------2--------------------2--2-----------2--------------
D|--------------------3--------0--------------------------2-----------
A|--------------------------------------------------------------------
E|--------------------------------------------------------------------

ENCONTRA COM A VIRGEM MARIA, SUA SAÚDE ELA DÁ
E|--------------------------------------------------------------------
B|--------------------------------------------------------------------
G|-----------------------------------2--------------------------------
D|-----2--------------------0-----3-----------2--3--2--0--------------
A|--------0--0--2--3--2--0--------------------------------3--2--0-----
E|--------------------------------------------------------------------

ENCONTRA COM A VIRGEM MARIA, SUA SAÚDE ELA DÁ
E|--------------------------------------------------------------------
B|--------------------------------------------------------------------
G|-----------------------------------2--------------------------------
D|-----2--------------------0-----3-----------2--3--2--0--------------
A|--------0--0--2--3--2--0--------------------------------3--2--0-----
E|--------------------------------------------------------------------
tabs and chords, guitar tabs, music contests, music covers, songsterr, reverbnation, renditions, tabulature, bollywood chords, ultimate guitar, yousician, guitar lessons, torrins, fender, gibson, acoustic guitar, electric guitar, youtube covers, gootar, guitar tuner, A-Z tabs, 911 tabs