Guitar Tabs for Tsunaida Te Kara Intro Solo

(/) Slide Up  (\) Slide Down  (h) Hammer On  (p) Pull Off  (b) Bend (r) Release (v) Vibrato (x) Muted
 
Tabs for Song : 

Song lyrics here
E|-----------12----14-12-------16-14-12----------------------12----14-12-------16-14-12----12-
B|--------12----12-------12-------------12----------------12----12-------12-------------12----
G|---7\13-------------------13-------------13----------13-------------------13----------------
D|--------------------------------------------------------------------------------------------
A|--------------------------------------------------------------------------------------------
E|--------------------------------------------------------------------------------------------

E|-----------------12----14-12-------16-14-12----------------------12----14-12-------16-14-12----14-
B|--------------12----12-------12-------------12----------------12----12-------12-------------12----
G|-----------13-------------------13-------------13----------11-------------------13----------------
D|--------------------------------------------------------------------------------------------------
A|--------------------------------------------------------------------------------------------------
E|--------------------------------------------------------------------------------------------------



Song lyrics here


Paste any tab in acousterr's tab maker and we'll play it !!!
Now supports capo and sound effects for vibrato/pull-off/hammer/bends/mutes etc !!! Checkout help section
tabs and chords, guitar tabs, music transcription, music technology, deep learning, music information retrieval, transcribe into tabs & chords, chordify, music renditions, songsterr, reverbnation, tabulature, bollywood chords, ultimate guitar, yousician, guitar lessons, acoustic guitar, electric guitar, guitar tuner, 911 tabs