Guitar Tabs for Morituri Te Salutan

(/) Slide Up  (\) Slide Down  (h) Hammer On  (p) Pull Off  (b) Bend (r) Release (v) Vibrato (x) Muted

Tabs for Song : 

Song lyrics here
E|--------------------------------------------------------------------------------------------------------------
B|--------------------------------------------------------------------------------------------------------------
G|-----------------------------------------------------------------------2-----2-----0--2--0-----------------2--
D|--2--0--2--------2--0-----0--3--3--3--3-----3--2--2--------2--2--2--------------------------3--2--2--3--2-----
A|-----------0--------------------------------------------------------------------------------------------------
E|--------------------------------------------------------------------------------------------------------------

E|-----------------------------------------------------------------------------------------------------------------
B|-----------------------------------------------------------------------------------------------------------------
G|-----2--0-----2--0--2--0--------------------------------------------------------------2--2--0--2--------2--0-----
D|--------------------------3-----3--2--0--2--------2--0-----------------------------------------------------------
A|--------------------------------------------------------3--2--2-----2--0-----2--0--------------------------------
E|--------------------------------------------------------------------------3--------------------------------------

E|--------------------------------------------------------------------------
B|--------------------------------------------------------------------------
G|-----2--0--2--0-----------------------------------------------------------
D|-----------------3-----3--2--0--2-----2--0--------------------------------
A|--------------------------------------------3--2--2-----2--0-----2--0-----
E|--------------------------------------------------------------3-----------

E|--------------------------------------------------------------------------------------------------------------
B|--------------------------------------------------------------------------------------------------------------
G|--------------------------------------------------------------------------------------------------------------
D|--------------0--0-----0-----------------------0--0--------------------0--2--0-----------------0--2--2--0-----
A|-----0--2--3--------3-----3--2--------2--2--3--------3--2--------3--3-----------3--------3--3--------------3--
E|--------------------------------------------------------------------------------------------------------------

E|-----------------------------------------------------------------------------------------------------------
B|-----------------------------------------------------------------------------------------------------------
G|--------------------------------------------------------------------------------------0--2--2--0-----------
D|--------0--0--2--3--2--0--------0--0--2--3--3--2--0--------2--2--0--2--2--------3--3--------------3--------
A|-----------------------------------------------------------------------------------------------------------
E|-----------------------------------------------------------------------------------------------------------

E|--------------------------------------------------------
B|--------------------------------------------------------
G|--------------------------------------------------------
D|--2--2--2--2--2--2--0--2--------2--2--2--2--2--0--------
A|--------------------------------------------------3--2--
E|--------------------------------------------------------



Song lyrics here
E|--
B|--
G|--
D|--
A|--
E|--

Paste any tab in acousterr's tab maker and we'll play it !!!
Now supports capo and sound effects for vibrato/pull-off/hammer/bends/mutes etc !!! Checkout help section
tabs and chords, guitar tabs, music transcription, music technology, deep learning, music information retrieval, transcribe into tabs & chords, chordify, music renditions, songsterr, reverbnation, tabulature, bollywood chords, ultimate guitar, yousician, guitar lessons, acoustic guitar, electric guitar, guitar tuner, 911 tabs