Bass Tabs for Zejtra Mam

(/) Slide Up  (\) Slide Down  (h) Hammer On  (p) Pull Off  (b) Bend (r) Release (v) Vibrato (x) Muted

Tabs for Song : Ready Kirken - Zejtra mam

Song lyrics here
Verse
G|--------x-----------x-----------x-----------x-----------x-----------x-----------x-----------x-----------x-----------
D|--------x-----------x-----------x-----------x-----------x-----------x-----------x-----------x-----------x-----------
A|--------x-----------x-----2--2--x--2--2--2--x--2--7--7--x--7--7--7--x--7--5--5--x--5--5--5--x--5--3--3--x--3--3--3--
E|--3--3--x--3--3--3--x--3--------x-----------x-----------x-----------x-----------x-----------x-----------x-----------

G|-----------x-----------x-----------x-----------x-----------x-----------
D|-----------x-----------x-----------x-----------x-----------x-----------
A|--3--------x-----------x-----------x-----------x-----5--5--x--5--5--5--
E|-----3--3--x--3--3--3--x--3--5--5--x--5--5--5--x--5--------x-----------

chorus
G|--------------------------------------------------------------------------------------------------------------------
D|--------------------------------------------------------------------------------------------------------------------
A|--3--3--3--3--3--------------------7--7--7--7--7--2--2--2--2--2--2--7--7--7--7--7--4--4--4--4--4--4--7--7--7--7--7--
E|-----------------3--3--3--3--3--3-----------------------------------------------------------------------------------

G|-----------------------------------------------
D|-----------------------------------------------
A|--4--4--4--4--4--4--6--6--6--6--6--6--6--6--6--
E|-----------------------------------------------

solo

G|--------x-----------x-----------x-----------x-----------x-----------x-----------x-----------x-----------x-----------
D|--------x-----------x-----------x-----------x-----------x-----------x-----------x-----------x-----------x-----------
A|--------x-----------x-----4--4--x--4--4--4--x--4--9--9--x--9--9--9--x--9--7--7--x--7--7--7--x--7--5--5--x--5--5--5--
E|--5--5--x--5--5--5--x--5--------x-----------x-----------x-----------x-----------x-----------x-----------x-----------

G|-----------x-----------x-----------x-----------x-----------x-----------
D|-----------x-----------x-----------x-----------x-----------x-----------
A|--5--4--4--x--4--4--4--x--4--2--2--x--2--2--2--x--2--7--7--x--7--7--7--
E|-----------x-----------x-----------x-----------x-----------x-----------


tabs and chords, guitar tabs, music transcription, music technology, deep learning, music information retrieval, transcribe into tabs & chords, chordify, music renditions, songsterr, reverbnation, tabulature, bollywood chords, ultimate guitar, yousician, guitar lessons, acoustic guitar, electric guitar, guitar tuner, 911 tabs