Guitar Tabs for Zankyou No Terror (ost) - Lolol

Zankyou No Terror - lolol (guitar)  

Main Riff
E|--------6--------6--------6--------6--------6--------6--------6--------6--
B|--2--7-----2--7-----2--7-----2--7-----1--7-----1--7-----1--7-----1--7-----
G|--------------------------------------------------------------------------
D|--------------------------------------------------------------------------
A|--------------------------------------------------------------------------
E|--------------------------------------------------------------------------

E|--------6--------6--------6--------6--------6--------6--------6--------6--
B|--3--7-----3--7-----3--7-----3--7-----2--7-----2--7-----2--7-----2--7-----
G|--------------------------------------------------------------------------
D|--------------------------------------------------------------------------
A|--------------------------------------------------------------------------
E|--------------------------------------------------------------------------

It has to be played with your 2 hands on the sleeve : 
- Left Hand - Only B string (: 2 .. 2 .. 2 .. 2 .. 1 .. 1 .. 1 .. 1 .. 3 .. 3 .. 3 .. 3)
- Right Hand - plays the rest (7 on the B string : index finger ; 6 on the E string : middle finger)

tabs and chords, guitar tabs, music transcription, music technology, deep learning, music information retrieval, transcribe into tabs & chords, chordify, music renditions, songsterr, reverbnation, tabulature, bollywood chords, ultimate guitar, yousician, guitar lessons, acoustic guitar, electric guitar, guitar tuner, 911 tabs