Guitar Tabs for Yui Again

(/) Slide Up  (\) Slide Down  (h) Hammer On  (p) Pull Off  (b) Bend (r) Release (v) Vibrato (x) Muted

Tabs for Song : 

Song lyrics here
E|--0-----7-----0--0-----------------7--0-----0-----2-----2--2-----2--3--2--3--2-----------
B|-----------------------3-----3--3-----------------------------------------------0--0-----
G|-----------------------------------------------------------------------------------------
D|-----------------------------------------------------------------------------------------
A|-----------------------------------------------------------------------------------------
E|-----------------------------------------------------------------------------------------

E|-----------0-----2-----0-----3-----0--0--------------5--5--5-----5--5--3--7-----5--3--0--------------
B|--0--3--------------------------------------3-----3-----------------------------------------3-----1--
G|-----------------------------------------------------------------------------------------------2-----
D|-----------------------------------------------------------------------------------------------------
A|-----------------------------------------------------------------------------------------------------
E|-----------------------------------------------------------------------------------------------------

E|-----------3--2--------0-----------0-----------------3--2-----0-----0-----0-----0-----0-----0-----0-----
B|--0-----3--------3--------3-----------3--------0--3--------4-----4-----4-----4-----4-----4-----4-----4--
G|-----------------------------2-----------2--------------------------------------------------------------
D|--------------------------------------------------------------------------------------------------------
A|--------------------------------------------------------------------------------------------------------
E|--------------------------------------------------------------------------------------------------------

E|-----------0--2--3--2--3-----2-----2--2--3--2--3--3-----2--------------------------0--2--3-----2--3-----2--
B|-----------------------------------------------------------0--1--0--1--0-----------------------------------
G|-----------------------------------------------------------------------------------------------------------
D|-----------------------------------------------------------------------------------------------------------
A|-----------------------------------------------------------------------------------------------------------
E|-----------------------------------------------------------------------------------------------------------

E|-----2--2-----3--2--3--7-----0-----0--2--2--3--2--------------------------------0--------------------------
B|--------------------------------------------------------0-----0--0--0-----3--3-----0-----0--0--0-----3--3--
G|-----------------------------------------------------2-----2-----------2--------------------------2--------
D|-----------------------------------------------------------------------------------------------------------
A|-----------------------------------------------------------------------------------------------------------
E|-----------------------------------------------------------------------------------------------------------

E|--0--------------------------0--------------------------3--2--------0-----0-----0--0--0-----0--0--3--0-----
B|-----0-----0--0--0-----3--3-----0-----0--0--1--0-----0--------0--------------------------------------------
G|--------------------2--------------------------------------------------------------------------------------
D|-----------------------------------------------------------------------------------------------------------
A|-----------------------------------------------------------------------------------------------------------
E|-----------------------------------------------------------------------------------------------------------

E|--0-----0-----0--0--0-----0--0--7--5-----0-----0-----0--0--0-----0--0--3-----0-----0-----0--3-----2--0-----
B|--------------------------------------------------------------------------------------------------------3--
G|-----------------------------------------------------------------------------------------------------------
D|-----------------------------------------------------------------------------------------------------------
A|-----------------------------------------------------------------------------------------------------------
E|-----------------------------------------------------------------------------------------------------------

E|--0-----0-----0--0--0-----0--0--3-----0-----0-----0-----0--0--0-----0--0--7-----5-----0-----0-----0--0--0--3--
B|--------------------------------------------------------------------------------------------------------------
G|--------------------------------------------------------------------------------------------------------------
D|--------------------------------------------------------------------------------------------------------------
A|--------------------------------------------------------------------------------------------------------------
E|--------------------------------------------------------------------------------------------------------------

E|--0-----7-----7--10----7--5--3--7-----0--0-----------------7--0-----0-----2-----2--2--------2--3--2--3--2-----
B|-----------------------------------------------3-----3--3--------------------------------------------------0--
G|--------------------------------------------------------------------------------------------------------------
D|--------------------------------------------------------------------------------------------------------------
A|--------------------------------------------------------------------------------------------------------------
E|--------------------------------------------------------------------------------------------------------------

E|-----------------------0-----2-----0-----3-----0--0-----------------5--5--5-----5--5--3--7-----5--3--0-----
B|-----0--0-----0--3--------------------------------------3-----3--------------------------------------------
G|-----------------------------------------------------------------------------------------------------------
D|-----------------------------------------------------------------------------------------------------------
A|-----------------------------------------------------------------------------------------------------------
E|-----------------------------------------------------------------------------------------------------------

E|--0-----7-----7--10----7--5--3--7-----0--0--------------------7--0-----0-----2-----2--2-----2--3--2--3--2--------
B|-----------------------------------------------3-----3--3--------------------------------------------------0--0--
G|-----------------------------------------------------------------------------------------------------------------
D|-----------------------------------------------------------------------------------------------------------------
A|-----------------------------------------------------------------------------------------------------------------
E|-----------------------------------------------------------------------------------------------------------------

E|-----------0-----2-----0-----3-----0--0-----------------5--5--5-----5--5--3--7-----0--
B|--0--3--------------------------------------3-----3-----------------------------------
G|--------------------------------------------------------------------------------------
D|--------------------------------------------------------------------------------------
A|--------------------------------------------------------------------------------------
E|--------------------------------------------------------------------------------------

E|--
B|--
G|--
D|--
A|--
E|--

Song lyrics here
E|--
B|--
G|--
D|--
A|--
E|--

Paste any tab in acousterr's tab maker and we'll play it !!!
Now supports capo and sound effects for vibrato/pull-off/hammer/bends/mutes etc !!! Checkout help section
tabs and chords, guitar tabs, music contests, music covers, songsterr, reverbnation, renditions, tabulature, bollywood chords, ultimate guitar, yousician, guitar lessons, torrins, fender, gibson, acoustic guitar, electric guitar, youtube covers, gootar, guitar tuner, A-Z tabs, 911 tabs