Guitar Tabs for You’ve Got A Friend In Me

(/) Slide Up  (\) Slide Down  (h) Hammer On  (p) Pull Off  (b) Bend (r) Release (v) Vibrato (x) Muted

Tabs & Chords
BPM : 117.0
Check Track 2 for Chord Positions 

    D#                G     Cm          B           A#             D#    A#       A#m         
E|--------6--------------------------------------------5--------------------------------------
B|-----------4-----------8--------------------0--------------6-----8-----7--------6-----6-----
G|--------------------7-----5-----5-----------------------------------------7-----------------
D|--------------8-----------------------4-----------8-----------------------------------------
A|--6-----------------------------------------------------------------------------------------
E|--------------------------------------------------------------------------------------------

       D#       A#       D#    G#          Am          D#             G#          D#    G        
E|-----------------------------------------------------------------------------------------------
B|-----------------------4--------4-----4--4-----------4--------4-----------------------0--------
G|--------------5--------------5--------------5-----------------------5-----------------------7--
D|-----8--8--------8-----------------------------7--------8-----------------7-----8--------------
A|-----------------------------------------------------------------------------------------------
E|-----------------------------------------------------------------------------------------------

       Cm             G#          G     Cm          G# A#       
E|-----------------------------------------------------------7--
B|-----4--------------------------6-----6--------------6--------
G|--7--------5--------7-----------------------5-----7-----7-----
D|--------------8-----------8-----------------------------------
A|--------------------------------------------------------------
E|--------------------------------------------------------------

Guitar Tabs for You’ve Got A Friend In Me






    D#                G     Cm          B           A#             D#    A#       A#m         
E|--6-----------------3-----3-----------2-----------1--------------6-----1--------1-----------
B|--8-----------------3-----4-----------4-----------3--------------8-----3--------2-----------
G|--8-----------------4-----5-----------4-----------3--------------8-----3--------3-----------
D|--8-----------------5-----5-----------4-----------3--------------8-----3--------3-----------
A|--6-----------------5-----3-----------2-----------1--------------6-----1--------1-----------
E|--------------------3-----------------------------------------------------------------------

       D#       A#       D#    G#          Am          D#             G#          D#    G        
E|-----6--------1--------6-----4-----------0-----------6--------------4-----------6-----3--------
B|-----8--------3--------8-----4-----------1-----------8--------------4-----------8-----3--------
G|-----8--------3--------8-----5-----------2-----------8--------------5-----------8-----4--------
D|-----8--------3--------8-----6-----------2-----------8--------------6-----------8-----5--------
A|-----6--------1--------6-----6-----------0-----------6--------------6-----------6-----5--------
E|-----------------------------4--------------------------------------4-----------------3--------

       Cm             G#          G     Cm          G# A#       
E|-----3--------------4-----------3-----3-----------4--1--------
B|-----4--------------4-----------3-----4-----------4--3--------
G|-----5--------------5-----------4-----5-----------5--3--------
D|-----5--------------6-----------5-----5-----------6--3--------
A|-----3--------------6-----------5-----3-----------6--1--------
E|--------------------4-----------3-----------------4-----------

tabs and chords, guitar tabs, music transcription, music technology, deep learning, music information retrieval, transcribe into tabs & chords, chordify, music renditions, songsterr, reverbnation, tabulature, bollywood chords, ultimate guitar, yousician, guitar lessons, acoustic guitar, electric guitar, guitar tuner, 911 tabs