Guitar Tabs for You're Gonna Live Forever In Me

(/) Slide Up  (\) Slide Down  (h) Hammer On  (p) Pull Off  (b) Bend (r) Release (v) Vibrato

INTRO

Guitar 1
    G              C        Cm    Em          A7      
E|--------------12----------------------12-15----------
B|--12-15-12-15----15-13----15-13-12-15----------12----
G|-----------------------12-------------------12----14-
D|-----------------------------------------------------
A|-----------------------------------------------------
E|-----------------------------------------------------
    C                              G                   Am           D7
E|-----------------------------------------------12----------15-------
B|--------------------------12-12-------------12----12----12----12----
G|--------12----12----12-14-------12-14-9--12----------14----------14-
D|--12-14----14----14-------------------------------------------------
A|--------------------------------------------------------------------
E|--------------------------------------------------------------------

Guitar 2
   G           C     Cm        E              A7            C
E|-----------------------------------------------------------------------
B|-----------------------------------------------------------------------
G|--------------5--4--2--5--------------4--------------2-----------------
D|-----------------------------2--4--5--------2--4--5-----------2--4--5--
A|-----------------------------------------------------------3-----------
E|-----------------------------------------------------------------------
    G             Am             D7 
E|--------------------------------------------
B|--------------------------------------1--3--
G|--------------------------------------------
D|-----------------------5--7-----0--4--------
A|-----------5--------3-----------------------
E|--3--5--7--------5--------------------------


VERSE

Guitar 1

E|--------------------------------------------------------------3--------------
B|-----------3--3-----3--3--5--3-----------3--------------3--5-----------------
G|--------4--------4--------------5--5--------5--5--2--4--------------4---4\2--
D|-----5--------------------------------5--------------------------5-----------
A|-----------------------------------------------------------------------------
E|-----------------------------------------------------------------------------

E|--------------------------------------------------------------3--------
B|--------------------------------------------------5--------------------
G|--------0-----0-----0--2---2/4--4--0--2-----0--4-----4--2--4-----4--2--
D|--0--2-----2-----2-----------------------2-----------------------------
A|-----------------------------------------------------------------------
E|-----------------------------------------------------------------------

Guitar 2
   G           C     Cm        E              A7            C
E|-----------------------------------------------------------------------
B|-----------------------------------------------------------------------
G|--------------5--4--2--5--------------4--------------2-----------------
D|-----------------------------2--4--5--------2--4--5-----------2--4--5--
A|-----------------------------------------------------------3-----------
E|-----------------------------------------------------------------------
    G             Am             D7 
E|--------------------------------------------
B|--------------------------------------1--3--
G|--------------------------------------------
D|-----------------------5--7-----0--4--------
A|-----------5--------3-----------------------
E|--3--5--7--------5--------------------------


OUTRO
Guitar 1
   D7
E|-----------------------------------------------------------
B|-----------------------------------3--5--7--------------3--
G|--------------------------------------------------2--4-----
D|-----------------------------------------------------------
A|-----------------------------------------------------------
E|-----------------------------------------------------------

Guitar 2
   D7
E|-----------------------------------------------------------
B|-----------1--3-----------1--3-----------1--3-----------1--
G|-----------------------------------------------------------
D|-----0--4-----------0--4-----------0--4-----------0--4-----
A|-----------------------------------------------------------
E|-----------------------------------------------------------
tabs and chords, guitar tabs, music transcription, music technology, deep learning, music information retrieval, transcribe into tabs & chords, chordify, music renditions, songsterr, reverbnation, tabulature, bollywood chords, ultimate guitar, yousician, guitar lessons, acoustic guitar, electric guitar, guitar tuner, 911 tabs