You're A Star - Josie And The Pussycats - Guitar Tabs

Josie I
    
                                                                                                                                                                                                                                                                                                                                                                                                                                                                                                                                                                                                 
E|-------------------------|
B|-------------------------|
G|--7--7-------------------|
D|--7--7-------------------|
A|--5--5-------------------|
E|-------------------------|

    
                                                                                                                                                                                                                                                                                                                                                                                                                                                                                                                                                                                                                                                                                                                                                                                                                                                                                                                                                                                                                                                                                                                                                                                              
E|-------------------------|-----------------------|
B|-------------------------|-----------------------|
G|-------------------------|-----------------------|
D|--4--4-------------------|5--5-------------------|
A|--4--4-------------------|5--5-------------------|
E|--2--2-------------------|3--3-------------------|

    
                                                                                                                                                                                                                                                                                                                                                                                                                                                                                                                                                                                                                                                                                                                                                                                                                                                                                                                                                                                                                                                                                                                                                                                              
E|-------------------------|-----------------------|
B|-------------------------|-----------------------|
G|-------------------------|-----------------------|
D|--7----------------------|7--7--7--7--7--7--7--7-|
A|--7----------------------|5--5--5--5--5--5--5--5-|
E|--5----------------------|-----------------------|

    
                                                                                                                                                                                                                                                                                                                                                                                                                                                                                                                                                                                                                                                                                                                                                                                                                                                                                                                                                                                                                                                                                                                                                                                              
E|-------------------------|-----------------------|
B|-------------------------|-----------------------|
G|-------------------------|-----------------------|
D|-------------------------|-----------------------|
A|--4--4--4--4--4--4--4--4-|5--5--5--5--5--5--5--5-|
E|--2--2--2--2--2--2--2--2-|3--3--3--3--3--3--3--3-|

    
                                                                                                                                                                                                                                                                                                                                                                                                                                                                                                                                                                                                                                                                                                                                                                                                                                                                                                                                                                                                                                                                                                                                                                                              
E|-------------------------|-----------------------|
B|-------------------------|-----------------------|
G|-------------------------|-----------------------|
D|-------------------------|7--7--7--7--7--7--7--7-|
A|--7--7--7--7--7--7--7--7-|5--5--5--5--5--5--5--5-|
E|--5--5--5--5--5--5--5--5-|-----------------------|

    
                                                                                                                                                                                                                                                                                                                                                                                                                                                                                                                                                                                                                                                                                                                                                                                                                                                                                                                                                                                                                                                                                                                                                                                              
E|-------------------------|-----------------------|
B|-------------------------|-----------------------|
G|-------------------------|-----------------------|
D|-------------------------|-----------------------|
A|--4--4--4--4--4--4--4--4-|5--5--5--5--5--5--5--5-|
E|--2--2--2--2--2--2--2--2-|3--3--3--3--3--3--3--3-|

    
                                                                                                                                                                                                                                                                                                                                                                                                                                                                                                                                                                                                                                                                                                                                                                                                                                                                                                                                                                                                                                                                                                                                                                                              
E|-------------------------|-----------------------|
B|-------------------------|-----------------------|
G|-------------------------|-----------------------|
D|-------------------------|7--7--7--7--7--7--7--7-|
A|--7--7--7--7--7--7--7--7-|5--5--5--5--5--5--5--5-|
E|--5--5--5--5--5--5--5--5-|-----------------------|

    
                                                                                                                                                                                                                                                                                                                                                                                                                                                                                                                                                                                                                                                                                                                                                                                                                                                                                                                                                                                                                                                                                                                                                                                              
E|-------------------------|-----------------------|
B|-------------------------|-----------------------|
G|-------------------------|-----------------------|
D|--6--6--6--6--6--6--6--6-|4--4--4--4--4--4--4--4-|
A|--4--4--4--4--4--4--4--4-|2--2--2--2--2--2--2--2-|
E|-------------------------|-----------------------|

    
                                                                                                                                                                                                                                                                                                                                                                                                                                                                                                                                                                                                                                                                                                                                                                                                                                                                                                                                                                                                                                                                                                                                                                                              
E|-------------------------|-----------------------|
B|-------------------------|-----------------------|
G|-------------------------|-----------------------|
D|--3--3--3--3--3--3--3--3-|7--7--7--x--x--x--x--x-|
A|--1--1--1--1--1--1--1--1-|7--7--7--x--x--x--x--x-|
E|-------------------------|5--5--5--x--x--x--x--x-|

    
                                                                                                                                                                                                                                                                                                                                                                                                                                                                                                                                                                                                                                                                                                                                                                                                                                                                                                                                                                                                                                                                                                                                                                                              
E|-------------------------|-----------------------|
B|-------------------------|-----------------------|
G|-------------------------|-----------------------|
D|--7--7--7--x--x--x--x--x-|7--7--7--7--7--7--7--7-|
A|--7--7--7--x--x--x--x--x-|5--5--5--5--5--5--5--5-|
E|--5--5--5--x--x--x--x--x-|-----------------------|

    
                                                                                                                                                                                                                                                                                                                                                                                                                                                                                                                                                                                                                                                                                                                                                                                                                                                                                                                                                                                                                                                                                                                                                                                              
E|-------------------------|-----------------------|
B|-------------------------|-----------------------|
G|-------------------------|-----------------------|
D|-------------------------|-----------------------|
A|--4--4--4--4--4--4--4--4-|5--5--5--5--5--5--5--5-|
E|--2--2--2--2--2--2--2--2-|3--3--3--3--3--3--3--3-|

    
                                                                                                                                                                                                                                                                                                                                                                                                                                                                                                                                                                                                                                                                                                                                                                                                                                                                                                                                                                                                                                                                                                                                                                                              
E|-------------------------|-----------------------|
B|-------------------------|-----------------------|
G|-------------------------|-----------------------|
D|-------------------------|7--7--7--7--7--7--7--7-|
A|--7--7--7--7--7--7--7--7-|5--5--5--5--5--5--5--5-|
E|--5--5--5--5--5--5--5--5-|-----------------------|

    
                                                                                                                                                                                                                                                                                                                                                                                                                                                                                                                                                                                                                                                                                                                                                                                                                                                                                                                                                                                                                                                                                                                                                                                              
E|-------------------------|-----------------------|
B|-------------------------|-----------------------|
G|-------------------------|-----------------------|
D|-------------------------|-----------------------|
A|--4--4--4--4--4--4--4--4-|5--5--5--5--5--5--5--5-|
E|--2--2--2--2--2--2--2--2-|3--3--3--3--3--3--3--3-|

    
                                                                                                                                                                                                                                                                                                                                                                                                                                                                                                                                                                                                                                                                                                                                                                                                                                                                                                                                                                                                                                                                                                                                                                                              
E|-------------------------|-----------------------|
B|-------------------------|-----------------------|
G|-------------------------|-----------------------|
D|-------------------------|7--7--7--7--7--7--7--7-|
A|--7--7--7--7--7--7--7--7-|5--5--5--5--5--5--5--5-|
E|--5--5--5--5--5--5--5--5-|-----------------------|

    
                                                                                                                                                                                                                                                                                                                                                                                                                                                                                                                                                                                                                                                                                                                                                                                                                                                                                                                                                                                                                                                                                                                                                                                              
E|-------------------------|-----------------------|
B|-------------------------|-----------------------|
G|-------------------------|-----------------------|
D|--6--6--6--6--6--6--6--6-|4--4--4--4--4--4--4--4-|
A|--4--4--4--4--4--4--4--4-|2--2--2--2--2--2--2--2-|
E|-------------------------|-----------------------|

    
                                                                                                                                                                                                                                                                                                                                                                                                                                                                                                                                                                                                                                                                                                                                                                                                                                                                                                                                                                                                                                                                                                                                                                                              
E|-------------------------|-----------------------|
B|-------------------------|-----------------------|
G|-------------------------|-----------------------|
D|--3--3--3--3--3--3--3--3-|7--7--7--x--x--x--x--x-|
A|--1--1--1--1--1--1--1--1-|7--7--7--x--x--x--x--x-|
E|-------------------------|5--5--5--x--x--x--x--x-|

    
                                                                                                                                                                                                                                                                                                                                                                                                                                                                                                                                                                                                                                                                                                                                                                                                                                                                                                                                                                                                                                                                                                                                                                                              
E|-------------------------|-----------------------|
B|-------------------------|-----------------------|
G|-------------------------|-----------------------|
D|--7--7--7--x--x--x--x--x-|7--7--7--x--x--x--x--x-|
A|--7--7--7--x--x--x--x--x-|7--7--7--x--x--x--x--x-|
E|--5--5--5--x--x--x--x--x-|5--5--5--x--x--x--x--x-|

    
                                                                                                                                                                                                                                                                                                                                                                                                                                                                                                                                                                                                                                                                                                                                                                                                                                                                                                                                                                                                                                                                                                                                                                                              
E|-------------------------|-----------------------|
B|-------------------------|-----------------------|
G|-------------------------|7--7--7--7--7--7--7--7-|
D|--7--7--7--x--x--x--x--x-|7--7--7--7--7--7--7--7-|
A|--7--7--7--x--x--x--x--x-|5--5--5--5--5--5--5--5-|
E|--5--5--5--x--x--x--x--x-|-----------------------|

    
                                                                                                                                                                                                                                                                                                                                                                                                                                                                                                                                                                                                                                                                                                                                                                                                                                                                                                                                                                                                                                                                                                                                                                                              
E|-------------------------|-----------------------|
B|-------------------------|-----------------------|
G|-------------------------|-----------------------|
D|--4--4--4--4--4--4--4--4-|5--5--5--5--5--5--5--5-|
A|--4--4--4--4--4--4--4--4-|5--5--5--5--5--5--5--5-|
E|--2--2--2--2--2--2--2--2-|3--3--3--3--3--3--3--3-|

    
                                                                                                                                                                                                                                                                                                                                                                                                                                                                                                                                                                                                                                                                                                                                                                                                                                                                                                                                                                                                                                                                                                                                                                                              
E|-------------------------|-----------------------|
B|-------------------------|-----------------------|
G|-------------------------|7--7--7--7--7--7--7--7-|
D|--7--7--7--7--7--7--7--7-|7--7--7--7--7--7--7--7-|
A|--7--7--7--7--7--7--7--7-|5--5--5--5--5--5--5--5-|
E|--5--5--5--5--5--5--5--5-|-----------------------|

    
                                                                                                                                                                                                                                                                                                                                                                                                                                                                                                                                                                                                                                                                                                                                                                                                                                                                                                                                                                                                                                                                                                                                                                                              
E|-------------------------|-----------------------|
B|-------------------------|-----------------------|
G|-------------------------|-----------------------|
D|--4--4--4--4--4--4--4--4-|5--5--5--5--5--5--5--5-|
A|--4--4--4--4--4--4--4--4-|5--5--5--5--5--5--5--5-|
E|--2--2--2--2--2--2--2--2-|3--3--3--3--3--3--3--3-|

    
                                                                                                                                                                                                                                                                                                                                                                                                                                                                                                                                                                                                                                                                                                                                                                                                                                                                                                                                                                                                                                                                                                                                                                                              
E|-------------------------|-----------------------|
B|-------------------------|-----------------------|
G|-------------------------|-----------------------|
D|--7--7--7--7--7--7--7--7-|7--7--7--7--7--7--7--7-|
A|--7--7--7--7--7--7--7--7-|5--5--5--5--5--5--5--5-|
E|--5--5--5--5--5--5--5--5-|-----------------------|

    
                                                                                                                                                                                                                                                                                                                                                                                                                                                                                                                                                                                                                                                                                                                                                                                                                                                                                                                                                                                                                                                                                                                                                                                              
E|-------------------------|-----------------------|
B|-------------------------|-----------------------|
G|-------------------------|-----------------------|
D|-------------------------|-----------------------|
A|--4--4--4--4--4--4--4--4-|5--5--5--5--5--5--5--5-|
E|--2--2--2--2--2--2--2--2-|3--3--3--3--3--3--3--3-|

    
                                                                                                                                                                                                                                                                                                                                                                                                                                                                                                                                                                                                                                                                                                                                                                                                                                                                                                                                                                                                                                                                                                                                                                                              
E|-------------------------|-----------------------|
B|-------------------------|-----------------------|
G|-------------------------|-----------------------|
D|-------------------------|7--7--7--7--7--7--7--7-|
A|--7--7--7--7--7--7--7--7-|5--5--5--5--5--5--5--5-|
E|--5--5--5--5--5--5--5--5-|-----------------------|

    
                                                                                                                                                                                                                                                                                                                                                                                                                                                                                                                                                                                                                                                                                                                                                                                                                                                                                                                                                                                                                                                                                                                                                                                              
E|-------------------------|-----------------------|
B|-------------------------|-----------------------|
G|-------------------------|-----------------------|
D|-------------------------|-----------------------|
A|--4--4--4--4--4--4--4--4-|5--5--5--5--5--5--5--5-|
E|--2--2--2--2--2--2--2--2-|3--3--3--3--3--3--3--3-|

    
                                                                                                                                                                                                                                                                                                                                                                                                                                                                                                                                                                                                                                                                                                                                                                                                                                                                                                                                                                                                                                                                                                                                                                                              
E|-------------------------|-----------------------|
B|-------------------------|-----------------------|
G|-------------------------|-----------------------|
D|-------------------------|7--7--7--7--7--7--7--7-|
A|--7--7--7--7--7--7--7--7-|5--5--5--5--5--5--5--5-|
E|--5--5--5--5--5--5--5--5-|-----------------------|

    
                                                                                                                                                                                                                                                                                                                                                                                                                                                                                                                                                                                                                                                                                                                                                                                                                                                                                                                                                                                                                                                                                                                                                                                              
E|-------------------------|-----------------------|
B|-------------------------|-----------------------|
G|-------------------------|-----------------------|
D|--6--6--6--6--6--6--6--6-|4--4--4--4--4--4--4--4-|
A|--4--4--4--4--4--4--4--4-|2--2--2--2--2--2--2--2-|
E|-------------------------|-----------------------|

    
                                                                                                                                                                                                                                                                                                                                                                                                                                                                                                                                                                                                                                                                                                                                                                                                                                                                                                                                                                                                                                                                                                                                                                                              
E|-------------------------|-----------------------|
B|-------------------------|-----------------------|
G|-------------------------|-----------------------|
D|--3--3--3--3--3--3--3--3-|7--7--7--x--x--x--x--x-|
A|--1--1--1--1--1--1--1--1-|7--7--7--x--x--x--x--x-|
E|-------------------------|5--5--5--x--x--x--x--x-|

    
                                                                                                                                                                                                                                                                                                                                                                                                                                                                                                                                                                                                                                                                                                                                                                                                                                                                                                                                                                                                                                                                                                                                                                                              
E|-------------------------|-----------------------|
B|-------------------------|-----------------------|
G|-------------------------|-----------------------|
D|--7--7--7--x--x--x--x--x-|7--7--7--x--x--x--x--x-|
A|--7--7--7--x--x--x--x--x-|7--7--7--x--x--x--x--x-|
E|--5--5--5--x--x--x--x--x-|5--5--5--x--x--x--x--x-|

    
                                                                                                                                                                                                                                                                                                                                                                                                                                                                                                                                                                                                                                                                                                                                                                                                                                                                                                                                                                                                                                                                                                                                                                                              
E|-------------------------|-----------------------|
B|-------------------------|-----------------------|
G|-------------------------|7--7--7--7--7--7--7--7-|
D|--7--7--7--x--x--x--x--x-|7--7--7--7--7--7--7--7-|
A|--7--7--7--x--x--x--x--x-|5--5--5--5--5--5--5--5-|
E|--5--5--5--x--x--x--x--x-|-----------------------|

About Josie and the Pussycats (TV series) - 16 episodes of Josie and the Pussycats aired on CBS during the 1970–71 television season and were rerun during the 1971–72 season . The animated series was produced by Hanna-Barbera Productions . Josie and the Pussycats in Outer Space was re-run on CBS during the 1972–73 season and were rerun until January 1974 . This brought its national Saturday morning TV run on three networks to six years . Josie and the Pussycats toured the world with their entourage . The group consisted of level-headed lead singer, songwriter and guitarist Josie . Other characters included their cowardly manager Alexander Cabot III, his conniving sister Alexandra, her cat Sebastian, and muscular roadie Alan . Josie and the Pussycats (TV series) had an affiliation to band(s) - Josie and the Pussycats.

tabs and chords, guitar tabs, music transcription, music technology, deep learning, music information retrieval, transcribe into tabs & chords, chordify, music renditions, songsterr, reverbnation, tabulature, bollywood chords, ultimate guitar, yousician, guitar lessons, acoustic guitar, electric guitar, guitar tuner, 911 tabs