Bass Tabs for Your Love Awakens Me C

(/) Slide Up  (\) Slide Down  (h) Hammer On  (p) Pull Off  (b) Bend (r) Release (v) Vibrato (x) Muted

Tabs for Song : Your Love Awakens Me
BPM : 200

Chorus

G|--------------
D|--------------
A|--3-----3-----
E|-----1-----1--

PreChorus 

G|-----------------
D|-----------------
A|-----------------
E|--3--5--1--1--1--


Chorus

G|-----------------------------------
D|-----------------------------------
A|--3-----------------------------3--
E|--------1-----5-----3-----1--------


Instrumental

G|--------------
D|--------------
A|--3--5--------
E|--------1--3--


Bridge

G|--------------------
D|--------------------
A|-----3--1--------3--
E|--1--------5--3-----

Use manual mode to free up cursor. Paste any tab in acousterr tab maker and we'll play it !!!
tabs and chords, guitar tabs, music transcription, music technology, deep learning, music information retrieval, transcribe into tabs & chords, chordify, music renditions, songsterr, reverbnation, tabulature, bollywood chords, ultimate guitar, yousician, guitar lessons, acoustic guitar, electric guitar, guitar tuner, 911 tabs