Guitar Tabs for Young Lonesome Ranger

(/) Slide Up  (\) Slide Down  (h) Hammer On  (p) Pull Off  (b) Bend (r) Release (v) Vibrato (x) Muted

Tabs for Song : 


Quick intro
E|---3/5--5--5--3--5--3--0--------
B|--------------------------3--1--
G|---3/5--5--5--------------------
D|-----------------0--------------
A|--------------------------------
E|--------------------------------
1-2
E|--------------12-------------10-------------8-----8--5--3--0---3/5--5--5--3--0--------
B|--------------------------------------------------------------------------------3--1--
G|--9--10-11-12----12-12--9/10----10-10--8/9--------------------------------------------
D|--------------------------------------------------------------------------------------
A|--------------------------------------------------------------------------------------
E|--------------------------------------------------------------------------------------
2-3
E|--------------------3--5--0-----3--5---5/8--8--5--8--5--3-----5--5v-
B|--1--2---3/5--3--5-----------3-----------------------------5--------
G|--------------------------------------------------------------------
D|--------------------------------------------------------------------
A|--------------------------------------------------------------------
E|--------------------------------------------------------------------

E|--5--4--3-----------------5--4--3-----------------
B|-----------5--4--3-----------------5--4--3--------
G|--------------------5--5v-------------------5--5v-
D|--------------------------------------------------
A|--------------------------------------------------
E|--------------------------------------------------



Now supports capo and sound effects for vibrato/pull-off/hammer/bends/mutes etc !!! Checkout help section
tabs and chords, guitar tabs, music transcription, music technology, deep learning, music information retrieval, transcribe into tabs & chords, chordify, music renditions, songsterr, reverbnation, tabulature, bollywood chords, ultimate guitar, yousician, guitar lessons, acoustic guitar, electric guitar, guitar tuner, 911 tabs