Guitar Tabs for Young Dumb And Broke

(/) Slide Up  (\) Slide Down  (h) Hammer On  (p) Pull Off  (b) Bend (r) Release (v) Vibrato (x) Muted

Tabs for Song : Young, Dumb and Broke
E|-----x-----x--------x--------------x-----x--2--------
B|-----x-----x--------x-----------0--x--0--x--3--------
G|--0--x--0--x-----0--x--0--0--0--0--x--0--x--2--------
D|--0--x--0--x-----0--x--0--0--0--2--x--2--x-----------
A|--0--x--0--x-----0--x--0--0--0--2--x--2--x-----------
E|--3--x--3--x-----3--x--3--3--2--0--x--0--x-----------

E|-----------------------------------------------------------------------------------------------------------
B|-----0-----0--3--0-----0--------0-----0--------------------------0------0h3--0-----0-----0-----0-----------
G|--------2-----------2--------------2-----2------2p0--0--0-----------2-----------2-----------2-----2--0--0--
D|--------------------------------------------------------------------------------------0-----------0--------
A|-----------------------------------------------------------------------------------------------------------
E|--3-----------3--------------3--------------3--------------2--0-----------0--------------------------------

E|-----------x--------------x--------------x--------------------x-----
B|-----0-----x--0--3--0-----x--0-----0-----x--0--------------0--x-----
G|-----0--2--x-----------2--x--------0--2--x-----2---2p0--0--0--x-----
D|-----------x--------------x--------------x--------------------x-----
A|-----------x--------------x--------------x--------------------x-----
E|--3--------x-----3--------x-----3--------x-----------3--------x--2--

E|-----------x-----------------x-----------------x--------------------x-----
B|-----0--2--x--0--------0--2--x--0--------0-----x--0-----------------x-----
G|-----------x-----2--2--------x--------------2--x-----2---2p2--0--0--x-----
D|-----------x-----------------x--------0--------x-----------0--------x-----
A|-----------x-----------------x-----------------x--------------------x-----
E|--0--------x--------0--------x-----------------x--------------------x-----

E|-----------------x-----------------x-----------------------x-----------------x--------------x-----------------x--------
B|-----------------x--------------0--x-----------------------x-----------------x--------------x--------------0--x--------
G|-----2--0--0-----x--0--0--0--0--0--x---2p2-----------0-----x--0--0--0--0-----x--------0-----x--0--0--0--0--0--x---2p2--
D|--------------0--x--0--0--0--0-----x--------0-----------0--x--0--0--0--0--2--x-----------2--x--2--2--2--2-----x--------
A|-----------------x-----------------x-----------------------x-----------------x--------------x-----------------x--------
E|-----------3-----x--3--3--3--3-----x-----------------3-----x--3--3--3--3-----x--------0-----x--0--0--0--0-----x--------

E|-----------x--------------------x--
B|-----0-----x--0--------------0--x--
G|--------2--x-----2---2p0--0--0--x--
D|--0--------x-----------0--------x--
A|-----------x--------------------x--
E|-----------x--------------------x--

E|--7--5--3--x--5---3h5---5p3--------x-----7--5--3--x--5---3h5---5p3--------x---5\7--5--3--x--5---3h5---5p3--------x-----
B|-----------x-----------------5--3--x--5-----------x-----------------5--3--x--------------x-----------------5--3--x--5--
G|-----------x-----------------------x--------------x-----------------------x--------------x-----------------------x-----
D|-----------x-----------------------x--------------x-----------------------x--------------x-----------------------x-----
A|-----------x-----------------------x--------------x-----------------------x--------------x-----------------------x-----
E|--3--------x--------3--------------x-----3--------x--------3--------------x-----0--------x--------0--------------x-----

E|---5\7--5--x---7p5---5/3--3--3--x--
B|-----------x--------------------x--
G|-----------x--------------------x--
D|-----------x-----0--------------x--
A|-----------x--------------------x--
E|-----------x--------------------x--




Song lyrics here


Paste any tab in acousterr's tab maker and we'll play it !!!
Now supports capo and sound effects for vibrato/pull-off/hammer/bends/mutes etc !!! Checkout help section
tabs and chords, guitar tabs, music contests, music covers, songsterr, reverbnation, renditions, tabulature, bollywood chords, ultimate guitar, yousician, guitar lessons, torrins, fender, gibson, acoustic guitar, electric guitar, youtube covers, gootar, guitar tuner, A-Z tabs, 911 tabs