Guitar Tabs for You Should Probably Leave

(/) Slide Up  (\) Slide Down  (h) Hammer On  (p) Pull Off  (b) Bend (r) Release (v) Vibrato (x) Muted

Chris Stapleton - You Should Probably Leave

Chords: Fm(x) A(x) D(x) 
Chorus: E B D A 

Riff 1 
E|-------------------------------------
B|-------------------------------------
G|-----------7--7------------------7---
D|-----------7--7--7----h9p--------7---
A|---7\9-----------------------9-------
E|-------------------------------------

Solo 1
E|-------------------------------------------------------------2--2-----
B|--------------------------------------------------------2----3--3--2--
G|--------------------------------------------------------2----2--2--2--
D|--------------------------------------------------------2----------2--
A|--------0--2--0--2--2/4--2--0--2--2--2/4---2p-----0-------------------	
E|--0--2-----------------------------------------2----------------------

Solo 2 
E|-----------------------------------------------------
B|-----------------------------------------------------
G|-----------------------------------------------------
D|--2h4--2---------------------------------------------
A|----------4--2--0--2/4--4\2--0--2/4--4\2--p2-----0---
E|----------------------------------------------2------
tabs and chords, guitar tabs, music transcription, music technology, deep learning, music information retrieval, transcribe into tabs & chords, chordify, music renditions, songsterr, reverbnation, tabulature, bollywood chords, ultimate guitar, yousician, guitar lessons, acoustic guitar, electric guitar, guitar tuner, 911 tabs