Bass Tabs for You Know My Name (chris Cornell)

(/) Slide Up  (\) Slide Down  (h) Hammer On  (p) Pull Off  (b) Bend (r) Release (v) Vibrato (x) Muted

4-String Bass Tabs for "You Know My Name" by Chris Cornell

INTRO: 
G|--------------------------
D|--------------------------  x
A|--2--2--------------------  4
E|-----------3--3-----0--0--

VERSE:  (use dead notes as in 2 2 - x 2 2 - x ...)
G|------------------------------------------------
D|--------------0..---------------0..-------------
A|--2..---------------2..-------------------------
E|--------3..---------------3..---------2..--2/9\- (3)

(colons are double-speed)
G|-------------------------|    ----------------------
D|------------------------o| x  ----------------------
A|-------------2:-0:------o| 2  ---------------------- (2)
E|-3:----2:----------4:----|    --4:----2:---2//14\2--

RERAIN:
G|---- VAMP ----   ---------------------------------|-----------
D|-------------- x -------------------7-----0-------|-----------
A|--2:---------- 2 ----7-----7----7-9---9-7---4--2--|--2:-------
E|------3:--0:--   -0:----0:----0-------------------|-----3:-0:-

G|-----------------|    -----------| B  ---------------
D|- SYNCOP --------| e  ----------o| r  --------------- (2)
A|-----------------| n  ----------o| d  -2-2-----------      TO
E|-0-1-2-3:---0:---| d  --2/12\0---| g  ------3-3--0-0-    VERSE

BRIDGE:
G|-----------------------------------------
D|-----------------------------------------        TO
A|----------------------------------------- (2)  REFRAIN
E|--3:----/12:----\3:-----/12:----12----\--

ENDING:
G|---------------  --- VAMP ---|     
D|---------------  -----------o| x   
A|---------------  --2:-------o| 3   
E|---0/12..---\0-  -----3:-0:--|     

G|------------------------------------------  
D|--2-2--0-0--------------------------------  
A|------------2-2--0-0----2-2---------------  
E|-------------------------------3-3----0-0-  

 
  
G|--
D|--
A|--
E|--

Use manual mode to free up cursor. Paste any tab in acousterr tab maker and we'll play it !!!
tabs and chords, guitar tabs, music transcription, music technology, deep learning, music information retrieval, transcribe into tabs & chords, chordify, music renditions, songsterr, reverbnation, tabulature, bollywood chords, ultimate guitar, yousician, guitar lessons, acoustic guitar, electric guitar, guitar tuner, 911 tabs