Guitar Tabs for You Cant Rush Your Healing

(/) Slide Up  (\) Slide Down  (h) Hammer On  (p) Pull Off  (b) Bend (r) Release (v) Vibrato

Tabs for Song : 

Song lyrics here
E|-----------------------------------------------------------------------------------------------------------------------
B|--------------------------------------------------------------------------------0--------------------------------------
G|--------1--------1--------1--------1--------2--------2--------2--------2-----1--------------1-----------1-----------1--
D|-----2--------2--------2--------2--------2--------2--------2--------2-----2--------2-----2-----2-----2-----2-----2-----
A|--------------------------------------------------------------------------------------2-----------0--------------------
E|--0--------0--------0--------0--------0--------0--------0--------0--------------------------------------------0--------

Song lyrics here
E|--------------------------------------(p)12-------
B|-----------------------------------0--------------
G|--------1--------1--------1-----2-----------------
D|-----2--------2--------2-----2--------------------
A|--------------------------------------------------
E|--0--------0--------0-----------------------(p)12-

E|--
B|--
G|--
D|--
A|--
E|--

Add more lines by placing cursor below and adding notes
tabs and chords, guitar tabs, music transcription, music technology, deep learning, music information retrieval, transcribe into tabs & chords, chordify, music renditions, songsterr, reverbnation, tabulature, bollywood chords, ultimate guitar, yousician, guitar lessons, acoustic guitar, electric guitar, guitar tuner, 911 tabs