Guitar Tabs for You Belong To Me - Jason Wade (basic Version)

(/) Slide Up  (\) Slide Down  (h) Hammer On  (p) Pull Off  (b) Bend (r) Release (v) Vibrato (x) Muted

Tabs for Song : 

Verse 1.1
E|-----------0--2--0--------------------------------------------------------------------------------
B|--------3-----------3--2--2--2-----2--------------------3-----3--2--0-----------------------------
G|-----2--------------------3-----3--------------------0-----0-----------2--2--2--4-----------------
D|--0-----------------------4-----------------------------------------------0---------2/4-----------
A|--------------------------------------------------------------------------------------------------
E|--------------------------------------------------3-----------------------------------------------

E|-----------------------------------------------------------0--------------0-----------------------
B|--------------------------3--2-----3--------------------3-----3--------3--2-----------------------
G|--------0---2p0-----------2--2-----4-----------------0-----------0--------2-----------------------
D|-----0-----------4--2--0--0--2-----4--------------------------------------2-----------------------
A|-----------------------------------2--------------------------------------0--------0--2-----4-----
E|--3-----------------------------------------------0-----------------------------------------------

Verse 1.2
E|-----------0--2--0--------------------------------------------------------------------------------
B|--------3-----------3--2--2--2-----2--------------------3-----3--2--0-----------------------------
G|-----2--------------------3-----3--------------------0-----0-----------2--2--2--4-----------------
D|--0-----------------------4-----------------------------------------------0---------2/4-----------
A|--------------------------------------------------------------------------------------------------
E|--------------------------------------------------3-----------------------------------------------

E|-----------------------------------------------------------2--------------------------------------
B|--------------------------3--2-----3--------------------5-----5-----------3-----------------------
G|--------0---2p0-----------2--2-----4-----------------2-----------2-----2--2-----------------------
D|-----0-----------4--2--0--0--2-----4--------------2-----------------2-----0-----------------------
A|-----------------------------------2-----------------------------------------------0--2-----4-----
E|--3-----------------------------------------------------------------------------------------------

Chorus 1
E|--2--2--------3-----2-----------------------------------
B|--3--------3--1--------0--0--0--------------------------
G|--2-----------2-----------0-----------------------------
D|--0-----------0-----------0-----------------0---0h2--0--
A|--------------------------2------------0h2--------------
E|--------------------------3--------3--------------------

E|--0--0---------0h2-----0-----------------------------------------------------
B|--0--------0---0h---------3--2-----------0-----------2-----------0-----------
G|--1------------1h------------2-----------0-----------2-----------0-----------
D|--2------------2h------------2-----------0-----------4-----------2-----------
A|--2------------2h------------0-----------2-----------4-----------2-----------
E|--0------------0h------------------------3-----------2-----------0-----------

Verse 2
E|-----------0--2--0--------------------------------------------------------------------------------
B|--------3-----------3--2--2--2-----2--------------------3-----3--2--0-----------------------------
G|-----2--------------------3-----3--------------------0-----0-----------2--2--2--4-----------------
D|--0-----------------------4-----------------------------------------------0---------2/4-----------
A|--------------------------------------------------------------------------------------------------
E|--------------------------------------------------3-----------------------------------------------

E|-----------------------------------------------------------2--------------------------------------
B|--------------------------3--2-----3--------------------5-----5-----------3-----------------------
G|--------0---2p0-----------2--2-----4-----------------2-----------2-----2--2-----------------------
D|-----0-----------4--2--0--0--2-----4--------------2-----------------2-----0-----------------------
A|-----------------------------------2--------------------------------------0-----------------------
E|--3-----------------------------------------------------------------------------------------------


Paste any tab in acousterr's tab maker and we'll play it !!!
Now supports capo and sound effects for vibrato/pull-off/hammer/bends/mutes etc !!! Checkout help section
tabs and chords, guitar tabs, music transcription, music technology, deep learning, music information retrieval, transcribe into tabs & chords, chordify, music renditions, songsterr, reverbnation, tabulature, bollywood chords, ultimate guitar, yousician, guitar lessons, acoustic guitar, electric guitar, guitar tuner, 911 tabs