Guitar Tabs for You Are - Sarah Russell

(/) Slide Up  (\) Slide Down  (h) Hammer On  (p) Pull Off  (b) Bend (r) Release (v) Vibrato (x) Muted

Tabs for Song : 

Song lyrics here
E|--------3-----------3-----------2-----------2-----
B|-----0-----0-----0-----0-----0-----0-----0-----0--
G|--0-----------0-----------------------------------
D|--------------------------------------------------
A|--------------------------2-----------2-----------
E|--------------------------------------------------

E|--------3-----------3-----------2-----------2-----------3-----------3-----------2-----------2-----
B|-----0-----0-----0-----0-----0-----0-----0-----0-----0-----0-----0-----0-----3-----3-----3-----3--
G|--------------------------------------------------------------------------------------------------
D|--------------------------------------------------------------------------0-----------0-----------
A|--3-----------3-----------2-----------2-----------3-----------3-----------------------------------
E|--------------------------------------------------------------------------------------------------

E|--------3-----------2-----------3-----------2-----
B|-----0-----0-----0-----0-----0-----0-----3-----3--
G|--------------------------------------------------
D|--2-----------------------------------0-----------
A|--------------2-----------3-----------------------
E|--------------------------------------------------

E|--------3-----------3-----------2-----------------
B|-----0-----0-----0-----0-----0-----0-----0-----0--
G|--------------------------------------------------
D|--------------------------0-----------0-----------
A|--3-----------3-----------------------------2-----
E|--------------------------------------------------

E|--------3-----------3-----------3-----3--
B|-----0-----0-----0-----0-----0-----0-----
G|-----------------------------------------
D|-----------------------------------------
A|--3-----------3-----------3-----------3--
E|-----------------------------------------

Song lyrics here
E|--0--2--0--2--
B|--0--3--3--3--
G|--0--4--0--2--
D|--2--4--2--0--
A|--2--2--3-----
E|--0-----0-----

E|--------------------------3-----------2-----------2-----0--
B|-----------------------0-----0-----0-----0-----3-----3--0--
G|--------------------------------------------------------0--
D|-----------0--------------------------------0-----------2--
A|--3-----------------3-----------2-----------------------2--
E|--------------------------------------------------------0--

Paste any tab in acousterr's tab maker and we'll play it !!!
Now supports capo and sound effects for vibrato/pull-off/hammer/bends/mutes etc !!! Checkout help section
tabs and chords, guitar tabs, music transcription, music technology, deep learning, music information retrieval, transcribe into tabs & chords, chordify, music renditions, songsterr, reverbnation, tabulature, bollywood chords, ultimate guitar, yousician, guitar lessons, acoustic guitar, electric guitar, guitar tuner, 911 tabs