Guitar Tabs for You Are Beautiful - James Blunt Intro Tabs

(/) Slide Up  (\) Slide Down  (h) Hammer On  (p) Pull Off  (b) Bend (r) Release (v) Vibrato

Tabs for Song : You are Beautiful intro tabs


E|--------------------------------------------------------
B|-----1--0--1--------1--0--1--3-----1--0--1--------------
G|--------------------------------------------------------
D|--2--------------2-----------------------------2--3-----
A|--------------------------------------------------------
E|--------------------------------------------------------

E|--------------------------------------------------------
B|-----1--0--1--------1--0--1--3-----1--0--1--------------
G|--------------------------------------------------------
D|--2--------------2-----------------------------2--3-----
A|--------------------------------------------------------
E|--------------------------------------------------------
tabs and chords, guitar tabs, music contests, music covers, songsterr, reverbnation, renditions, tabulature, bollywood chords, ultimate guitar, yousician, guitar lessons, torrins, fender, gibson, acoustic guitar, electric guitar, youtube covers, gootar, guitar tuner, A-Z tabs, 911 tabs