Guitar Tabs for Yomi Peters Juju Music

(/) Slide Up  (\) Slide Down  (h) Hammer On  (p) Pull Off  (b) Bend (r) Release (v) Vibrato (x) Muted

Tabs & Chords
BPM : 110.0
Check Track 2 for Chord Positions 

                A#    B                 G                                            C  A     
E|--------------20-------------------------------------------------------------------0--12----
B|-----------------------------------------------12-------------12-15----12-12-------------13-
G|--------------------------------------12----14----12----12----------12----------------------
D|--------------------------------------------------------------------------------------------
A|--------------------------------------------------------------------------------------------
E|--8--7--8-----------7--7--7--6--7-----------------------------------------------------------

       G        A                       D     E     A                 D     G                 
E|--------------15----14----------------------19----------------------19----19-19----19-------
B|-----15-------------------------13----------------------------------------------------------
G|--------------------------------------------------------------------------------------------
D|--------------------------------------------------------------15-------------------------15-
A|--------------------------------------------------0-----------------------------------------
E|-----------------------7--------------14-------7--------7-----------------------------3-----

                         C                 F        
E|--------------------------------------------------
B|--------12-12-------------------------------------
G|-----13-------------------------------14-14-------
D|--------------------------------------------------
A|--------------------------------------------------
E|--------------16-------0--8-----13-------------13-

Guitar Tabs for Yomi Peters Juju Music






                A#    B                 G                                            C  A     
E|--------------1-----2-----------------3--------------------------------------------0--0-----
B|--------------3-----4-----------------3--------------------------------------------1--2-----
G|--------------3-----4-----------------4--------------------------------------------0--2-----
D|--------------3-----4-----------------5--------------------------------------------2--2-----
A|--------------1-----2-----------------5--------------------------------------------3--0-----
E|--------------------------------------3-----------------------------------------------------

       G        A                       D     E     A                 D     G                 
E|-----3--------0-----------------------2-----0-----0-----------------2-----3-----------------
B|-----3--------2-----------------------3-----0-----2-----------------3-----3-----------------
G|-----4--------2-----------------------2-----1-----2-----------------2-----4-----------------
D|-----5--------2-----------------------0-----2-----2-----------------0-----5-----------------
A|-----5--------0-----------------------------2-----0-----------------------5-----------------
E|-----3--------------------------------------0-----------------------------3-----------------

                         C                 F        
E|-----------------------0-----------------1--------
B|-----------------------1-----------------1--------
G|-----------------------0-----------------2--------
D|-----------------------2-----------------3--------
A|-----------------------3-----------------3--------
E|-----------------------------------------1--------

tabs and chords, guitar tabs, music transcription, music technology, deep learning, music information retrieval, transcribe into tabs & chords, chordify, music renditions, songsterr, reverbnation, tabulature, bollywood chords, ultimate guitar, yousician, guitar lessons, acoustic guitar, electric guitar, guitar tuner, 911 tabs