Guitar Tabs for Yesterday

YESTERDAY (The Beatles)

E|-----------------------------0--1--0--------------------------------------------------------------------------------------------
B|--------------------0--2--3--------------3--3-----------3--3--1-----------------------------------------------------------------
G|--0--------------2-----------------------------------------------3--2--0--3-----2--2--------0-----------2--0--------------2--2--
D|-----3--3-----------------------------------------------------------------------------------------3--------------0--3-----------
A|--------------------------------------------------------------------------------------------------------------------------------
E|--------------------------------------------------------------------------------------------------------------------------------

E|-----------------------0--1--0-----0-----------------------------------------0--1--0-----0-----------0--1-----------
B|-----------------3--------------3-----3--1--1--3--------------------------3-----------3-----3--1--1--------1--------
G|--2--------2--------------------------------------2--------2--------2-----------------------------------------3--2--
D|--------------------------------------------------------------------------------------------------------------------
A|--------------------------------------------------------------------------------------------------------------------
E|--------------------------------------------------------------------------------------------------------------------

 lyrics 

Yesterday all my troubles seemed so far away.
Now it looks as though they're here to stay.
Oh, I believe in yesterday.

Suddenly, I'm not half the man I used to be.
There's a shadow hanging over me.
Oh, yesterday came suddenly.

Why she had to go?
I don't know, she wouldn't say.
I said something wrong.
Now I long for yesterday.

Yesterday love was such an easy game to play.
Now I need a place to hide away.
Oh, I believe in yesterday.

Why she had to go?
I don't know, she wouldn't say.
I said something wrong.
Now I long for yesterday.

Yesterday love was such an easy game to play.
Now I need a place to hide away.
Oh, I believe in yesterday.

tabs and chords, guitar tabs, music contests, music covers, songsterr, reverbnation, renditions, tabulature, bollywood chords, ultimate guitar, yousician, guitar lessons, torrins, fender, gibson, acoustic guitar, electric guitar, youtube covers, gootar, guitar tuner, A-Z tabs, 911 tabs