Guitar Tabs for Yes, You're In Love

(/) Slide Up  (\) Slide Down  (h) Hammer On  (p) Pull Off  (b) Bend (r) Release (v) Vibrato (x) Muted

Tabs for Song : 
BPM : 200

Structure:

Verse x2
Chorus
Verse
Chorus
Break
2nd Chorus
Verse 
Chorus
2nd Chorus, variation


Verse:

From the moment that you squeezed her
E|--------------------------------------------
B|--------------------------------------------
G|--------------------------4--4--4--4--2--0--
D|--2--2--2--0--------------------------------
A|--------------0--2--2--2--------------------
E|--------------------------------------------

To the moment you blew your load
E|--------------------------------------------
B|--------------------------------------------
G|--------------------------4--4--4--4--2--0--
D|--2--2--2--0--------------------------------
A|--------------0--2--2--2--------------------
E|--------------------------------------------

We know what the deal is, don't you 
E|--------------------------------------------
B|--------------------------------------------
G|--------------------------4--4--4--4--2--0--
D|--2--2--2--0--------------------------------
A|--------------0--2--2--2--------------------
E|--------------------------------------------

E|-----------------------------------
B|-----------------------------------
G|-----------------------------------
D|--2--2--2--0-----------------------
A|--------------0--2--2--2--2--2--2--
E|-----------------------------------

Yes, You're in Love
E|-----------------------------------------------------------------------------
B|-----------------------------------------------------------------------------
G|--------------------------------------------------------------------7--7--7--
D|--10-10-10-9--7--7--7--------------------10-10-10-9--7--7--7-----------------
A|-----------------------10-7--7--7--7--7-----------------------10-7-----------
E|-----------------------------------------------------------------------------

E|--------------------------------------------
B|--------------------------------------------
G|--2--2--2--0--2--4--4--4--2--2--2--0--2--4--
D|--------------------------------------------
A|--------------------------------------------
E|--------------------------------------------

Chorus:

Love is blind, but yours lacks reason
E|--------------------------------------------------------------------------------
B|-----------------------------------------------8--8--8--8--8--8--8--8--8--8--8--
G|--7--7--7--7--7--7--7--7--7--7--7--7--7--7--9-----------------------------------
D|--------------------------------------------------------------------------------
A|--------------------------------------------------------------------------------
E|--------------------------------------------------------------------------------

E|--------------------------------------------------------
B|-----------------------3--3-----------------3--3--------
G|--2--2--2--0--2--4--4--------2--2--2--0--2--------4--4--
D|--------------------------------------------------------
A|--------------------------------------------------------
E|--------------------------------------------------------

2nd Chorus:

How many need to die, before you open your eyes
E|-----------------------------------------------------------------------------------------------------
B|-----------------------------------------------------------------------------------------------------
G|--5--5--5--5--5--5--4--4--4--5--7--7--7--7--7--7--7--16-16-16-16-16-16-16-16-14-14-14-14-14-14-14-14-
D|-----------------------------------------------------------------------------------------------------
A|-----------------------------------------------------------------------------------------------------
E|-----------------------------------------------------------------------------------------------------

E|-----------------------------------------------------------------------------------------------------
B|-----------------------------------------------------------------------------------------------------
G|--5--5--5--5--5--5--4--4--4--5--7--7--7--7--7--7--7--16-16-16-16-16-16-16-16-14-14-14-14-14-14-14-14-
D|-----------------------------------------------------------------------------------------------------
A|-----------------------------------------------------------------------------------------------------
E|-----------------------------------------------------------------------------------------------------

E|-----------
B|-----------
G|--5--4--7--
D|-----------
A|-----------
E|-----------

2nd Chorus,ending variation

E|--------------
B|--------------
G|--5--4--7--16-
D|--------------
A|--------------
E|--------------



Use manual mode to free up cursor. Paste any tab in acousterr tab maker and we'll play it !!!
tabs and chords, guitar tabs, music transcription, music technology, deep learning, music information retrieval, transcribe into tabs & chords, chordify, music renditions, songsterr, reverbnation, tabulature, bollywood chords, ultimate guitar, yousician, guitar lessons, acoustic guitar, electric guitar, guitar tuner, 911 tabs