Bass Tabs for Yard Sale Bass Tabs

(/) Slide Up  (\) Slide Down  (h) Hammer On  (p) Pull Off  (b) Bend (r) Release (v) Vibrato (x) Muted

Bass Tab for Yard Sale


Intro
G|--------------------------------------------------
D|--------------------------------------------------
A|--------------------------------------------------
E|--0--0--0--0--0--0--0--0--7--7--7--7--8--8--8--8--
                                                         
G|--------------------------------------------------
D|--------------------------------------------------
A|--------------------------------------------------
E|--0--0--0--0--0--0--0--0--3--3--3--3--4--4--4--4--
                                                         Repeat 5 times
                                                         
 Verse                                                         
G|--------------------------------------
D|--------------------------------------
A|--------------------------------------
E|--0--3--4--5--10-------0--3--4--5--8--

Chorus Transition

G|--4--4--4--4--2--2--1--1--------
D|--------------------------------
A|--------------------------------
E|--------------------------0--0--

Guitar Solo

G|-----------------------------------------------------------------------------------
D|-----------------------------------------------------------------------------------
A|-----------------------------------------------------------------------------------
E|--0-----0--0--2--2--2--4--4--4--7--7--7-----2-----2--2--4--4--4--1--1--1--0--0--0--

                                                                           Repeat 4 times
   Outro
   
G|--------------------------
D|--------------------------
A|--------------------------
E|--0--0--4--4--1--1---5\1--

tabs and chords, guitar tabs, music transcription, music technology, deep learning, music information retrieval, transcribe into tabs & chords, chordify, music renditions, songsterr, reverbnation, tabulature, bollywood chords, ultimate guitar, yousician, guitar lessons, acoustic guitar, electric guitar, guitar tuner, 911 tabs