Guitar Tabs for Yaaro Dosti - Kk Tabs

(/) Slide Up  (\) Slide Down  (h) Hammer On  (p) Pull Off  (b) Bend (r) Release (v) Vibrato

Yaaron Dosti Badi Hi Hassen Hai KK Tabs

Intro
E|-----------------------------------------------
B|--------------1--------------------------------
G|--1-----1--3-----3--1--------1--1-----1--1-----
D|-----1-----------------1--3--------3-----------
A|-----------------------------------------------
E|-----------------------------------------------

Intro
E|-----------------------------------------------
B|--------------1--------------------------------
G|--1-----1--3-----3--1--------1--1-----1--1-----
D|-----1-----------------1--3--------3-----------
A|-----------------------------------------------
E|-----------------------------------------------

Yaaron Dosti Badi Hi Haseen Hai
E|--------------------------------------------------
B|--------------------------9-----------------------
G|--5-----8-----6-----10-------8--5--5--6--5--------
D|--------------------------------------------6-----
A|--------------------------------------------------
E|--------------------------------------------------

Ye na ho to, kya fir, bolo ye zindagi hai
E|-----------------------------------------------------
B|--------------4--------6-----9--4--------------------
G|--1--3--5-----------6--------------5--5--6--5--------
D|-----------------------------------------------6-----
A|-----------------------------------------------------
E|-----------------------------------------------------


Koi To Ho Raazdaar
E|--------------------------------
B|--------------------------------
G|--------------------------------
D|--6--8--10----10-8--10-8--6-----
A|--------------------------------
E|--------------------------------

Begaraj Tera Ho Yaar
E|--------------------------------
B|--------------------------------
G|--------------------------------
D|--6--8--10----10-8--6--3--------
A|--------------------------------
E|--------------------------------

Koi To Ho Raazdaar
E|--------------------------------
B|--------------------------------
G|--------------------------------
D|--6--8--10----10-8--10-8--6-----
A|--------------------------------
E|--------------------------------


E|--------------------
B|--------------------
G|--8-----------------
D|-----10-8--6--------
A|--------------------
E|--------------------
tabs and chords, guitar tabs, music contests, music covers, songsterr, reverbnation, renditions, tabulature, bollywood chords, ultimate guitar, yousician, guitar lessons, torrins, fender, gibson, acoustic guitar, electric guitar, youtube covers, gootar, guitar tuner, A-Z tabs, 911 tabs