Guitar Tabs for Yaad Hain Na - Raaz Reboot Tabs

(/) Slide Up  (\) Slide Down  (h) Hammer On  (p) Pull Off  (b) Bend (r) Release (v) Vibrato (x) Muted

Tabs for Song : Yaad Hai Na

Woh mere aane pe khil jaana tera
E|-----------------------------------------
B|-----------------------------------------
G|--7--7--7--5--5-----------------------5--
D|-----------------8--8--8--7--7--7--8-----
A|-----------------------------------------
E|-----------------------------------------

Woh mere jaane pe chid jaana tera
E|--------------------------------------
B|--------------------------------------
G|--5--5--------------------------------
D|--------8--8--7--7--7--5--5--5--7--8--
A|--------------------------------------
E|--------------------------------------

Woh mere chhune pe chhil jaana tera Yaad hai na
E|-----------------------------------------------------
B|-----------------------------------------------------
G|-----------------------------------------------------
D|--8--8--8--7--7--5--5--5-----------5--7---7/8--7--5--
A|--------------------------8--8--8--------------------
E|-----------------------------------------------------

Woh paas aane pe pighal jaana tera
E|-----------------------------------------------------------
B|-----------------------------------------------------------
G|---5/7--7--7--7--5--5-----------------------5-----5-----5--
D|-----------------------8--8--8--7--7--7--8-----8-----8-----
A|-----------------------------------------------------------
E|-----------------------------------------------------------

Boond boond mujhpe baras jaana tera
E|--------------------------------------
B|--------------------------------------
G|--5--5--------------------------------
D|--------8--8--7--7--7--5--5--5--7--8--
A|--------------------------------------
E|--------------------------------------

Til til mujhko woh tarsana tera Yaad hai na, yaad hai na, yaad hai na
E|-----------------------------------------------------------------------------------
B|-----------------------------------------------------------------------------------
G|-----------------------------------------------------------------------------------
D|--8--8--8--7--7--5--5--5-----------5--7---7/8--7--5---7/8--7--5---------7/8--7--5--
A|--------------------------8--8--8--------------------------------8--6--------------
E|-----------------------------------------------------------------------------------

Honthon se palkon ko kholna
E|-----------------------------------------------
B|--------------------6--6--------6--------------
G|--7--8--7--5--------------8--8-----8--7--7--5--
D|--------------8--8-----------------------------
A|-----------------------------------------------
E|-----------------------------------------------

Palkon pe dardon ko tolna
E|--------------------------------------------
B|--------------------6--6--------6-----------
G|--7--8--7--5--------------8--8-----8--7--7--
D|--------------8--8--------------------------
A|--------------------------------------------
E|--------------------------------------------

Dardon ko chaadar mein chhodna
E|--------------------------------------
B|--------------------------------------
G|--5--7--8--7--5--5--5--------5--------
D|-----------------------8--7-----8--5--
A|--------------------------------------
E|--------------------------------------

Again Repeat Like Part One...
tabs and chords, guitar tabs, music transcription, music technology, deep learning, music information retrieval, transcribe into tabs & chords, chordify, music renditions, songsterr, reverbnation, tabulature, bollywood chords, ultimate guitar, yousician, guitar lessons, acoustic guitar, electric guitar, guitar tuner, 911 tabs