Ya No Te Espero Intro - Guitar Tabs

(/) Slide Up  (\) Slide Down  (h) Hammer On  (p) Pull Off  (b) Bend (r) Release (v) Vibrato (x) Muted

Tabs for Song : 
BPM : 240


Song lyrics here 
E|-----------------------------------------------------------------------------------------------
B|-----------------------------------3---------------------------------------------0h2-----------
G|--------2-----2-----------------0-----0--------------------------------------2-----------2-----
D|-----0-----4-----0-----0-----0--------------------------------0-----0-----2--------------------
A|--4-----------------4-----2--------------------------------2-----4-----0-----------------------
E|------------------------------------------------------0h3--------------------------------------

E|-----------------------------------------------------------------0-----2--------------2--
B|--------------------------------------------------------0---2b3-----3--3-----------------
G|-----------------------------------2-----------------2-----------------2-----2-----2-----
D|-----0-----0-----0--------------0-----0-----------2--------------------0-----------------
A|--4-----2-----0--------0-----0-----------------0-----------------------------------------
E|--------------------3-----2--------------------------------------------------------------

E|--------------------------------------------------------------------0--------------------------
B|---------------------------------------------------------------0h2-----------------------------
G|--------2-----2--------------------------------------------2-----------------------------------
D|-----0-----4-----0-----0--------------------------0-----2-----------------0-----0-----0--------
A|--4-----------------4-----2--------------------2-----0-----------------4-----2-----0--------0--
E|------------------------------------------0h3--------------------------------------------3-----

Song lyrics here 
E|--------------------------------------------0--------2--------------2--
B|-----------------------------------0---2b3-----3-----3-----------------
G|-----------2--------------------2--------------------2-----2-----2-----
D|--------0-----0--------0-----2-----------------------0-----------------
A|-----0--------------0-----0--------------------------------------------
E|--2--------------------------------------------------------------------
                            (                         ://                  )
E|-----------------------------------------------5-----3-----2-----0-----------------3--------3--
B|--------------------------------2--------5-----5-----3-----3-----3-----3-----------------3-----
G|--------2-----2-----------------3--------6-----------------------------4--------------4--------
D|-----0-----4-----0-----0-----2-----------------------------------------------------------------
A|--4-----------------4-----1---------1p4-----4-----4-----2-----2-----2---------2p0--------------
E|-----------------------------------------------------------------------------------3-----------

E|--2--------2--0--------0--2--3-----5--------------------------2-----
B|--------2-----------3-----3--3-----5-----5--------------------3-----
G|-----2-----------------------------6-----6-----6--------------2-----
D|-----------------------------------------------7-----7-----0--------
A|-----------------------------------------------------7--------------
E|--2-----------0-----------2--3-----5--5-----5-----5-----------------

E|--------------------------------------
B|-----------------------------------0--
G|--------2-----2-----------0-----------
D|-----0-----4-----0-----0--------------
A|--4-----------------4-----------------
E|--------------------------3-----------

E|--
B|--
G|--
D|--
A|--
E|--

Use manual mode to free up cursor. Paste any tab in acousterr tab maker and we'll play it !!!

About Manoella Torres - Manoella Torres is an American-Mexican singer and actress based in Mexico . She has recorded over 350 songs by famous songwriters including Armando Manzanero . Gloria Torres Calderón was the daughter of Puerto Ricans Felicia Calderón and Jorge Torres . She idolized singers like Cuco Sánchez, Los Panchos and Lucha Villa . As a young girl she was sent to live with her maternal grandmother . Her first single record that Manzanero wrote titled "El Último Verano" became a smash hit throughout Mexico . Soon Manoella would appear regularly on "Siempre en Domingo" with Raúl Velasco . Manoella Torres had an affiliation to band(s) - Manoella Torres. Manoella Torres's music is influenced by genre(s) - latin pop , mariachi , pop.

tabs and chords, guitar tabs, music transcription, music technology, deep learning, music information retrieval, transcribe into tabs & chords, chordify, music renditions, songsterr, reverbnation, tabulature, bollywood chords, ultimate guitar, yousician, guitar lessons, acoustic guitar, electric guitar, guitar tuner, 911 tabs