X-men Theme - Cartoons Theme - Bass Tabs

Bass
    4 4 
                                                                                                                                                                                                                                                                                                                                                                                                                                                                                                                                                                                                                                                                                                                                                                                                                                                                                                                                                                                                                                                                                                                                                                                              
G|-------------------------------------------------|-----------------------------------------------|
D|--------------0--0--------0--0--0--0--2--2--0--0-|------------0--0--------0--0--0--0--2--2--0--0-|
A|--2--2--2--2--------2--2-------------------------|2--2--2--2--------2--2-------------------------|
E|-------------------------------------------------|-----------------------------------------------|

    
                                                                                                                                                                                                                                                                                                                                                                                                                                                                                                                                                                                                                                                                                                                                                                                                                                                                                                                                                                                                                                                                                                                                                                                              
G|-------------------------------------------------|-----------------------------------------------|
D|--------------0--0--------0--0--0--0--2--2--0--0-|------------0--0--------0--0--0--0--2--2--0--0-|
A|--2--2--2--2--------2--2-------------------------|2--2--2--2--------2--2-------------------------|
E|-------------------------------------------------|-----------------------------------------------|

    
                                                                                                                                                                                                                                                                                                                                                                                                                                                                                                                                                                                                                                                                                                                                                                                                                                                                                                                                                                                                                                                                                                                                                                                              
G|-------------------------------------------------|-----------------------------------------------|
D|--------------0--0--------0--0--0--0--2--2--0--0-|------------0--0--------0--0--0--0--2--2--0--0-|
A|--2--2--2--2--------2--2-------------------------|2--2--2--2--------2--2-------------------------|
E|-------------------------------------------------|-----------------------------------------------|

    
                                                                                                                                                                                                                                                                                                                                                                                                                                                                                                                                                                                                                                                                                                                                                                                                                                                                                                                                                                                                                                                                                                                                                                                              
G|-------------------------------------------------|-----------------------------------------------|
D|--------------0--0--------0--0--0--0--2--2--0--0-|------------0--0--------0--0--0--0--2--2--0--0-|
A|--2--2--2--2--------2--2-------------------------|2--2--2--2--------2--2-------------------------|
E|-------------------------------------------------|-----------------------------------------------|

    
                                                                                                                                                                                                                                                                                                                                                                                                                                                                                                                                                                                                                                                                                                                                                                                                                                                                                                                                                                                                                                                                                                                                                                                              
G|--------------0--0--------0--0--0--0--2--2--0--0-|------------0--0--------0--0--0--0--2--2--0--0-|
D|--2--2--2--2--------2--2-------------------------|2--2--2--2--------2--2-------------------------|
A|-------------------------------------------------|-----------------------------------------------|
E|-------------------------------------------------|-----------------------------------------------|

    
                                                                                                                                                                                                                                                                                                                                                                                                                                                                                                                                                                                                                                                                                                                                                                                                                                                                                                                                                                                                                                                                                                                                                                                              
G|-------------------------------------------------|-----------------------------------------------|
D|--------------0--0--------0--0--0--0--2--2--0--0-|------------0--0--------0--0--0--0--2--2--0--0-|
A|--2--2--2--2--------2--2-------------------------|2--2--2--2--------2--2-------------------------|
E|-------------------------------------------------|-----------------------------------------------|

    
                                                                                                                                                                                                                                                                                                                                                                                                                                                                                                                                                                                                                                                                                                                                                                                                                                                                                                                                                                                                                                                                                                                                                                                              
G|-------------------------------------------------|-----------------------------------------------|
D|--4--4--4--4--4--4--4--4--4--4--4--4--4--4--4--4-|5--5--5--5--5--5--5--5--5--5--5--5--5--5--5--5-|
A|-------------------------------------------------|-----------------------------------------------|
E|-------------------------------------------------|-----------------------------------------------|

    
                                                                                                                                                                                                                                                                                                                                                                                                                                                                                                                                                                                                                                                                                                                                                                                                                                                                                                                                                                                                                                                                                                                                                                                              
G|-------------------------------------------------|-----------------------------------|
D|--7--7--7--7--7--7--7--7--7--7--7--7--5--5--5--5-|4--4--4--4--4--4--4--4--4----------|
A|-------------------------------------------------|-----------------------------------|
E|-------------------------------------------------|-----------------------------------|

    
                                                                                                                                                                                                                                                                                                                                                                                                                                                                                                                                                                                                                                                                                                                                                                                                                                                                                                                                                                                                                                                                                                                                                                                              
G|-------------------------------------------------|-----------------------------------------------|
D|--------------0--0--------0--0--0--0--2--2--0--0-|------------0--0--------0--0--0--0--2--2--0--0-|
A|--2--2--2--2--------2--2-------------------------|2--2--2--2--------2--2-------------------------|
E|-------------------------------------------------|-----------------------------------------------|

    
                                                                                                                                                                                                                                                                                                                                                                                                                                                                                                                                                                                                                                                                                                                                                                                                                                                                                                                                                                                                                                                                                                                                                                                              
G|-------------------------------------------------|-----------------------------------------------|
D|--------------0--0--------0--0--0--0--2--2--0--0-|------------0--0--------0--0--0--0--2--2--0--0-|
A|--2--2--2--2--------2--2-------------------------|2--2--2--2--------2--2-------------------------|
E|-------------------------------------------------|-----------------------------------------------|

    
                                                                                                                                                                                                                                                                                                                                                                                                                                                                                                                                                                                                                                                                                                                                                                                                                                                                                                                                                                                                                                                                                                                                                                                              
G|--------------0--0--------0--0--0--0--2--2--0--0-|------------0--0--------0--0--0--0--2--2--0--0-|
D|--2--2--2--2--------2--2-------------------------|2--2--2--2--------2--2-------------------------|
A|-------------------------------------------------|-----------------------------------------------|
E|-------------------------------------------------|-----------------------------------------------|

    
                                                                                                                                                                                                                                                                                                                                                                                                                                                                                                                                                                                                                                                                                                                                                                                                                                                                                                                                                                                                                                                                                                                                                                                              
G|-------------------------------------------------|-----------------------------------------------|
D|--------------0--0--------0--0--0--0--2--2--0--0-|------------0--0--------0--0--0--0--2--2--0--0-|
A|--2--2--2--2--------2--2-------------------------|2--2--2--2--------2--2-------------------------|
E|-------------------------------------------------|-----------------------------------------------|

    
                                                                                                                                                                                                                                                                                                                                                                                                                                                                                                                                                                                                                                                                                                                                                                                                                                                                                                                                                                                                                                                                                                                                                                                              
G|-------------------------------------------------|-----------------------------------------------|
D|--4--4--4--4--4--4--4--4--4--4--4--4--4--4--4--4-|5--5--5--5--5--5--5--5--5--5--5--5--5--5--5--5-|
A|-------------------------------------------------|-----------------------------------------------|
E|-------------------------------------------------|-----------------------------------------------|

    
                                                                                                                                                                                                                                                                                                                                                                                                                                                                                                                                                                                                                                                                                                                                                                                                                                                                                                                                                                                                                                                                                                                                                                                              
G|-------------------------------------------------|-----------------------------------|
D|--7--7--7--7--7--7--7--7--7--7--7--7--5--5--5--5-|4--4--4--4--4--4--4--4--4----------|
A|-------------------------------------------------|-----------------------------------|
E|-------------------------------------------------|-----------------------------------|

    
                                                                                                                                                                                                                                                                                                                                                                                                                                                                                                                                                                                                 
G|-------------------------------------------------|
D|--------------0--0--------0--0--0--0--2--2--4--9-|
A|--2--2--2--2--------2--2-------------------------|
E|-------------------------------------------------|
tabs and chords, guitar tabs, music transcription, music technology, deep learning, music information retrieval, transcribe into tabs & chords, chordify, music renditions, songsterr, reverbnation, tabulature, bollywood chords, ultimate guitar, yousician, guitar lessons, acoustic guitar, electric guitar, guitar tuner, 911 tabs