Ukulele Tabs for Xiaomi Mi Ringtone Ukulele

A|-----------3--------3--------------5--------5--------
E|--------3--------3--------------3--------3-----------
C|-----4--------4---------4h5--2--------2---------2h4--
G|-----------------------------------------------------


A|--------3--------3-----3--------5--------5-----5--
E|-----1--------1--------------3--------3-----------
C|--0--------0--------0-----2--------2--------2-----
G|--------------------------------------------------


A|--------3--------3--------------5--------5--------
E|-----3--------3--------------3--------3-----------
C|--4--------4---------4h5--2--------2---------2h4--
G|--------------------------------------------------


A|--------3--------3-----3--------5--------5-----5-----
E|-----1--------1--------------3--------3--------------
C|--0--------0--------0-----2--------2--------2--------
G|-----------------------------------------------------
tabs and chords, guitar tabs, music transcription, music technology, deep learning, music information retrieval, transcribe into tabs & chords, chordify, music renditions, songsterr, reverbnation, tabulature, bollywood chords, ultimate guitar, yousician, guitar lessons, acoustic guitar, electric guitar, guitar tuner, 911 tabs