Guitar Tabs for Wreck

(/) Slide Up  (\) Slide Down  (h) Hammer On  (p) Pull Off  (b) Bend (r) Release (v) Vibrato (x) Muted

Tabs for Song : 

Song lyrics here
E|-------------------------------------------------------------------------------------------------
B|-------------------------------------------------------------------------------------------------
G|-----------------------------------------3--3--2-----------------------------------------0--0----
D|-----7-----7-----7-----7-----7-----7-----------------7-----7-----7-----7-----7-----7-----------3-
A|--8-----8-----7-----7-----5-----5-----1-----------8-----8-----7-----7-----5-----5-----1----------
E|-------------------------------------------------------------------------------------------------

E|--------------------------------------------------------------------------------------------------
B|--------------------------------------------------------------------------------------------------
G|--------------------------------------------------------------------------------------------------
D|-----7-----7-----7-----7-----7-----7-----5-----5-----3-----3-----5-----5-----3-----3-----5-----5--
A|--8-----8-----7-----7-----5-----5-----3-----3-----1-----1-----3-----3-----1-----1-----3-----3-----
E|--------------------------------------------------------------------------------------------------

E|--------------------------------------------------------------------------------------------------
B|--------------------------------------------------------------------------------------------------
G|-----------------------------3--3--2-----------------------2-----2--2--0-----------------------0--
D|-----7--7--------7--7--------------------0--0--3-----0--0--------------------0--0--3-----3--3-----
A|--5--------5--5--------5--1-----------------------1-----------1-----------------------------------
E|--------------------------------------1-----------------------------------1-----------0-----------

E|--------------------------------------------------------------------------------------------
B|--------------------------------------------------------------------------------------------
G|-----------0-----------------------0-----------------------0-----------0-----------0--------
D|-----7-----------7-----7-----7-----------7-----7------3----------3-----------3-----------3---
A|--5-----5-----5-----0-----------------------------------------------------------------------
E|--------------------------6-----6-----6-----0-----1-----1-----1-----1-----0-----0-----0-----

E|-----------1-----------------------5-----3--------------------------------------------------------
B|-----3-----------3-----3-----3-----------------3-----------1--------------------------------------
G|--2-----2-----2-----2-----3-----3-----3-----3--------2-----------2-----2-----------0--------------
D|--------------------------------------------------3-----3-----3-----3--------2-----------2-----2--
A|--------------------------------------------------------------------------3-----3-----3-----3-----
E|--------------------------------------------------------------------------------------------------

Song lyrics here
E|--
B|--
G|--
D|--
A|--
E|--

Now supports capo and sound effects for vibrato/pull-off/hammer/bends/mutes etc !!! Checkout help section
tabs and chords, guitar tabs, music transcription, music technology, deep learning, music information retrieval, transcribe into tabs & chords, chordify, music renditions, songsterr, reverbnation, tabulature, bollywood chords, ultimate guitar, yousician, guitar lessons, acoustic guitar, electric guitar, guitar tuner, 911 tabs