Guitar Tabs for Work In Progress

(/) Slide Up  (\) Slide Down  (h) Hammer On  (p) Pull Off  (b) Bend (r) Release (v) Vibrato (x) Muted

Tabs for Song : 

Song lyrics here
E|----------------------------------------------------------------------------
B|--------0--------0----------------------------------------------------------
G|--------------------------0--------0-----------------------------------------4x
D|--2--2-----2--2-----------------------------0--------0--------7--------7-----
A|--------------------3--3-----3--3-----2--2-----2--2-----5--5-----5--5-------
E|----------------------------------------------------------------------------

E|-----------------------------------------------------------------------------------------------
B|-----------------------------------------------------------------------------------------------
G|--0--0--0--0--0--0--0--------------------------------------------------------------------------
D|--2--2--2--2--2--2--2-----0--0--0--0--0--0--0-----0--0--0--0--0--0--0-----7--7--7--7--7--7--7--
A|--------------------------3--3--3--3--3--3--3-----2--2--2--2--2--2--2-----5--5--5--5--5--5--5--
E|-----------------------------------------------------------------------------------------------

E|----------------------------------------------------------------------------------------
B|----------------------------------------------------------------------------------------
G|--0--0--0--0--0--0--0--------------------------------------------------------------------
D|--2--2--2--2--2--2--2-----0--0--0--0--0--0--0-----0--0--0--0--0--0--0-----7-----7--7--7---
A|--------------------------3--3--3--3--3--3--3-----2--2--2--2--2--2--2-----5-----5--5--5--
E|----------------------------------------------------------------------------------------





Song lyrics here
E|--
B|--
G|--
D|--
A|--
E|--

Now supports capo and sound effects for vibrato/pull-off/hammer/bends/mutes etc !!! Checkout help section
tabs and chords, guitar tabs, music transcription, music technology, deep learning, music information retrieval, transcribe into tabs & chords, chordify, music renditions, songsterr, reverbnation, tabulature, bollywood chords, ultimate guitar, yousician, guitar lessons, acoustic guitar, electric guitar, guitar tuner, 911 tabs