Guitar Tabs for Work In Prog 3

(/) Slide Up  (\) Slide Down  (h) Hammer On  (p) Pull Off  (b) Bend (r) Release (v) Vibrato (x) Muted

Tabs for Song : 

Song lyrics here
E|-----2---------2p0--0--------------------------------------------------------------------------
B|--------3--------------------2---------2h3--------2---------2p0--0--------3---------3h5--------
G|--4--------4--------------------2--------------------3-----------------------4-----------------
D|--------------------------2--------2-----------4--------4--------------5--------5--------------
A|-----------------------------------------------------------------------------------------------
E|-----------------------------------------------------------------------------------------------

E|--------------------------------------------------
B|--------------------------------------------------
G|--------5-----4-----0-----0-----2-----0------2p0--
D|--2--2-----2-----2-----0-----0-----0-----0--------
A|--------------------------------------------------
E|--------------------------------------------------

E|--\-----------------------------------------------
B|--------------------------------------------------
G|--------5-----4-----0-----0-----2-----0------2p0--
D|--2--2-----2-----2-----0-----0-----0-----0--------
A|--------------------------------------------------
E|--------------------------------------------------

E|--------------------------------------------------\-\-
B|--------------------------------------------------
G|--------------------------------------------------
D|--------5------2p0-----------7--5---------4h5-----
A|--0--------------------3-----------2--------------
E|--------------------------------------------------

Song lyrics here
E|--
B|--
G|--
D|--
A|--
E|--

Paste any tab in acousterr's tab maker and we'll play it !!!
Now supports capo and sound effects for vibrato/pull-off/hammer/bends/mutes etc !!! Checkout help section
tabs and chords, guitar tabs, music transcription, music technology, deep learning, music information retrieval, transcribe into tabs & chords, chordify, music renditions, songsterr, reverbnation, tabulature, bollywood chords, ultimate guitar, yousician, guitar lessons, acoustic guitar, electric guitar, guitar tuner, 911 tabs