Guitar Tabs for Wo Pehli Baar

Tabs for Song : Wo Pehli Baar

wo pehli baar ,jab hum mile

E|--------------------------------
B|--7--6--7--------7--6--7--------
G|-----------8--------------6-----
D|--------------------------------
A|--------------------------------
E|--------------------------------

hathon mein haath jab hum chale

E|--------------------------------------
B|--6-----6--------9-----7--6--7--------
G|-----8-----6--------------------8-----
D|--------------------------------------
A|--------------------------------------
E|--------------------------------------

ho gya ye dil deewana

E|--------------6--------------------
B|--7--6--7-----------9---7h9--6-----
G|-----------8-----------------------
D|-----------------------------------
A|-----------------------------------
E|-----------------------------------

hota hai pyaar kya kisne jaana

E|-----------------------------------
B|--6-----6-----9-----7--6--7--------
G|-----8-----6-----------------8-----
D|-----------------------------------
A|-----------------------------------
E|-----------------------------------

teri ankho mein jannat basa ke chala

E|--------6--6--6--9--7--6-----------6-----------
B|--7--9--------------------9-----9-----9--------
G|-----------------------------------------------
D|-----------------------------------------------
A|-----------------------------------------------
E|-----------------------------------------------

teri zulfo ki chauv mein chalta chala

E|--------------6-----------------------6-----
B|--6--7--9--9-----9--7--6-----7--7--9--------
G|--------------------------------------------
D|--------------------------------------------
A|--------------------------------------------
E|--------------------------------------------

tere naino mein chain tere lab pe khushi

E|--------6--6--6--9--7--6-----------6-----------
B|--7--9--------------------9-----9-----9--------
G|-----------------------------------------------
D|-----------------------------------------------
A|-----------------------------------------------
E|-----------------------------------------------

tujhko hi mein mohabbat bana ke chala

E|--------------6-----------------------------
B|--6--7--9--9-----9--7---6h7--7--6--6--------
G|--------------------------------------8-----
D|--------------------------------------------
A|--------------------------------------------
E|--------------------------------------------





tabs and chords, guitar tabs, music transcription, music technology, deep learning, music information retrieval, transcribe into tabs & chords, chordify, music renditions, songsterr, reverbnation, tabulature, bollywood chords, ultimate guitar, yousician, guitar lessons, acoustic guitar, electric guitar, guitar tuner, 911 tabs