Guitar Tabs for Witcher

(/) Slide Up  (\) Slide Down  (h) Hammer On  (p) Pull Off  (b) Bend (r) Release (v) Vibrato

Tabs for Song : 

Song lyrics here
E|--3--2--3--2--3--2--3--2--3-----2--3--0-----2-----3--2--3--2--3--2--3--2--3-----------5-----3--2--3-----------2--
B|--3-----------------------3-----------------------3-----3-----------3-----3-----3-----3-----------3-----3-----3--
G|--0-----0-----------0-----------0-----------0--------0-----------0-----------0-----0-----------------0-----0-----
D|-----2-----------2-----------2-----------2--------------------------------------------0-----------------------0--
A|--------------------------------------------------3-----------3-----------3-----------------------3--------------
E|--0-----------0-----------0-----------0--------------------------------------------------------------------------

E|-----7-----7--0-----7--5--0--2-----3--2--3-----2--------7--7--10-5-----7-----5--2--3--5--7-----
B|-----------8-----0--5--7-----------3-----------3-----------8-----------------------------------
G|-----------------------------------------------------------------------------------------------
D|-----------------------0-----------------------------------------------------------------------
A|-----------------------------------3-----------2-----------------------------3--------2--------
E|-----------0-----------------------------------------------0--------0--------------------------

E|-----3--2--3--2-----0-----3--3--2--3--5--------3--2--3--2--3--2--3--2--5-----3--2--0--0--2-----
B|-----3--------------3-----3-----------3--------3-----------------------------------------------
G|-----0-----------0-----------------------------0-----0-----------0-----------0-----------------
D|--------------------------------------0-----------2-----------2-----------2--------------------
A|--3-----------3-----------3--------------------------------------------------------------------
E|-----------------------------------------------0-----------0-----------0-----------0-----------

E|--3-----------0--2--3--5--7-----0-----------0--2--3-----3--2--5-----3--2--3-----------------0--2--
B|--------------------------------------------------------3-----------3-----------3-----------3-----
G|--------0-----------0-----------0-----------0--------0-----0-----0-----0-----0-----0-----0-----0--
D|-----2-----2-----2-----2--------------------------------------------------------------------------
A|-----------------------------7-----7-----7-----7--3-----------3-----------3-----------3-----------
E|--0-----------0-----------0-----------0-----------------------------------------------------------

E|--3-----------0--2--3--5--7-----10----------7-----5-----2--3--5-----7-----5--3--2--3--2-----
B|--------------------------------------10----------------------------------------3-----4-----
G|--------0-----------0-----------0-----------0--------0-----------0-----------0-----0--------
D|-----2-----2-----2-----2--------------------------------------------------------------------
A|-----------------------------7-----7-----7-----7--3-----------3-----------2-----------2-----
E|--0-----------0-----------0-----------0-----------------------------------------------------

E|--7--7--0--7--5--0--2-----3--2--3-----2-----7-----7--10-5-----7-----5--2--3--5--7--------3--2--3--2-----0--
B|--8-----0--5--7-----------3-----------3-----------8--------------------------------------3--------------3--
G|-----------------------------------------------------------------------------------------0-----------0-----
D|--------------0--------------------------------------------------------------------------------------------
A|--------------------------3-----------2-----------------------------3--------2--------3-----------3--------
E|--0-----------------------------------------------0--------0-----------------------------------------------

E|--3--3--2--3--5--------3--2--3--2--3--2--3--2--5-----3--2--0--0--2-----3-----------0--2--3--5--7--
B|--3-----------3--------3--------------------------------------------------------------------------
G|-----------------------0-----0-----------0-----------0-----------------------0-----------0--------
D|--------------0-----------2-----------2-----------2-----------------------2-----2-----2-----2-----
A|--3-----------------------------------------------------------------------------------------------
E|-----------------------0-----------0-----------0-----------0-----------0-----------0-----------0--

Song lyrics here
E|--
B|--
G|--
D|--
A|--
E|--

Now supports capo and sound effects for vibrato/pull-off/hammer/bends etc !!! Checkout help section
tabs and chords, guitar tabs, music contests, music covers, songsterr, reverbnation, renditions, tabulature, bollywood chords, ultimate guitar, yousician, guitar lessons, torrins, fender, gibson, acoustic guitar, electric guitar, youtube covers, gootar, guitar tuner, A-Z tabs, 911 tabs