Guitar Tabs for Wishing Well

(/) Slide Up  (\) Slide Down  (h) Hammer On  (p) Pull Off  (b) Bend (r) Release (v) Vibrato (x) Muted

Tabs for Song : Wishing Well: by Miguel Burney

Song lyrics here
E|--=---------------------------------------------11----9--7-----9--5--------5----------------------------------
B|--------9-----7--10----9--7-----9--------------------------------------5--------7--5-----7--9-----10-12----14-
G|--8--9-----------------------------9-----8--9--------------8--------6--------5--------------------------------
D|-----------9--------9--------8-----9--9-----------9--------------7--------7-----------6--------9--------11----
A|--------7--------9--------6--------------------9--------6--------------------------4--------7--------9--------
E|-----------------------------------9--------------------------------------------------------------------------

Song lyrics here
E|--------------
B|-----------10-
G|--------11----
D|-----11-------
A|--9-----------
E|--------------

Paste any tab in acousterr's tab maker and we'll play it !!!
Now supports capo and sound effects for vibrato/pull-off/hammer/bends/mutes etc !!! Checkout help section
tabs and chords, guitar tabs, music transcription, music technology, deep learning, music information retrieval, transcribe into tabs & chords, chordify, music renditions, songsterr, reverbnation, tabulature, bollywood chords, ultimate guitar, yousician, guitar lessons, acoustic guitar, electric guitar, guitar tuner, 911 tabs