Guitar Tabs for Wilco - Pot Kettle Black

Wilco - Pot Kettle Black

Tuning -> Open D - D-A-D-F#-A-D

Intro
D|-----------------------------------------
A|-----------------------------------------
F|-----------------------------------------  4x
D|-----------------------------------------
A|--9--9--9--9--10----9--9--9--9--9--9--9--
D|--0--0--0--0--0-----5--5--5--5--5--5--5--

1st Verse

Crazy rides rockets,                 waves a magic wand
D|--------------------------------------------------------------------------
A|--------------------------------------------------------------------------
F|--------------------------------------------------------------------------
D|--------------------------------------------------------------------------
A|-----------0--0--0--0--0--5--5--5--5--5-----0--0--0--0--0--5--5--5--5--5--
D|-----------0--0--0--0--0--5--5--5--5--5-----0--0--0--0--0--5--5--5--5--5--

Empty out your pockets,  words without a song
D|--------------------------------------------------------------------------
A|--------------------------------------------------------------------------
F|--------------------------------------------------------------------------
D|--------------------------------------------------------------------------
A|-----------0--0--0--0--0--5--5--5--5--5-----0--0--0--0--0--5--5--5--5--5--
D|-----------0--0--0--0--0--5--5--5--5--5-----0--0--0--0--0--5--5--5--5--5--

Pre-Chorus

I myself have found a real rival in myself
D|--------------------------------------
A|--------------------------------------
F|--------------------------------------
D|--------------------------------------
A|--2--2--2--2--2-----5--5--5--5--5--5--
D|--2--2--2--2--2-----5--5--5--5--5--5--

D|-----------------------------------------
A|-----------------------------------------
F|-----------------------------------------  
D|-----------------------------------------
A|--9--9--9--9--10----9--9--9--9--9--9--9--
D|--0--0--0--0--0-----5--5--5--5--5--5--5--

I am hoping for the rearrival of my health
D|--------------------------------------
A|--------------------------------------
F|--------------------------------------
D|--------------------------------------
A|--2--2--2--2--2-----5--5--5--5--5--5--
D|--2--2--2--2--2-----5--5--5--5--5--5--

D|-----------------------------------------
A|-----------------------------------------
F|-----------------------------------------  2x
D|-----------------------------------------
A|--9--9--9--9--10----9--9--9--9--9--9--9--
D|--0--0--0--0--0-----5--5--5--5--5--5--5--

2nd Verse

Sleeping eye sockets,           baby suck your thumb
D|--------------------------------------------------------------------------
A|--------------------------------------------------------------------------
F|--------------------------------------------------------------------------
D|--------------------------------------------------------------------------
A|-----------0--0--0--0--0--5--5--5--5--5-----0--0--0--0--0--5--5--5--5--5--
D|-----------0--0--0--0--0--5--5--5--5--5-----0--0--0--0--0--5--5--5--5--5--

I'll keep you in my locket,  a string I never strum
D|--------------------------------------------------------------------------
A|--------------------------------------------------------------------------
F|--------------------------------------------------------------------------
D|--------------------------------------------------------------------------
A|-----------0--0--0--0--0--5--5--5--5--5-----0--0--0--0--0--5--5--5--5--5--
D|-----------0--0--0--0--0--5--5--5--5--5-----0--0--0--0--0--5--5--5--5--5--

2nd Pre-Chorus

It's become so obvious, you are so oblivious to yourself
D|-----------------------------------------------------
A|-----------------------------------------------------
F|-----------------------------------------------------
D|-----------------------------------------------------
A|--2--2--2--2--2--------5--5--5--5--5--5--5--5--5--5--
D|--2--2--2--2--2--------5--5--5--5--5--5--5--5--5--5--

D|-----------------------------------------
A|-----------------------------------------
F|-----------------------------------------  
D|-----------------------------------------
A|--9--9--9--9--10----9--9--9--9--9--9--9--
D|--0--0--0--0--0-----5--5--5--5--5--5--5--

D|--------------------
A|--------------------
F|--------------------
D|--------------------
A|--8--8--8--7--7--7--
D|--5--5--5--5--5--5--

1st Chorus

I'm tied in a knot      but I'm not gonna get caught calling a
D|--------------0--------------------------------
A|--------------5-----4--------5--------------2--
F|--------------0-----0--------------------------
D|--------------0--------------5--------------2--
A|--------------5-----4--------5--------------2--
D|--------------0-----4--------5--------------2--

Pot kettle black
D|--------------
A|--0--------4--
F|-----------4--
D|--0--------4--
A|--0--------4--
D|--0--------4--

Every song's a comeback, every moment's a little bit later
D|--------------------------------------------------------
A|--2--------------5-----2-----------------5--------------
F|--------------------------------------------------------
D|--2--------------5-----2-----------------5--------------
A|--2--------------5-----2-----------------5--------------
D|--2--------------5-----2-----------------5--------------

Intro
D|-----------------------------------------
A|-----------------------------------------
F|-----------------------------------------  2x
D|-----------------------------------------
A|--9--9--9--9--10----9--9--9--9--9--9--9--
D|--0--0--0--0--0-----5--5--5--5--5--5--5--


3rd Verse

     Lazy locomotives,       wherever you may roll
D|--------------------------------------------------------------------------
A|--------------------------------------------------------------------------
F|--------------------------------------------------------------------------
D|--------------------------------------------------------------------------
A|-----------0--0--0--0--0--5--5--5--5--5-----0--0--0--0--0--5--5--5--5--5--
D|-----------0--0--0--0--0--5--5--5--5--5-----0--0--0--0--0--5--5--5--5--5--

I think you have no motive,        I know you have no home
D|-----------------------------------------------------------------------------------
A|-----------------------------------------------------------------------------------
F|-----------------------------------------------------------------------------------
D|-----------------------------------------------------------------------------------
A|--------------------0--0--0--0--0--5--5--5--5--5-----0--0--0--0--0--5--5--5--5--5--
D|--------------------0--0--0--0--0--5--5--5--5--5-----0--0--0--0--0--5--5--5--5--5--

I myself have found a real rival in myself
D|--------------------------------------
A|--------------------------------------
F|--------------------------------------
D|--------------------------------------
A|--2--2--2--2--2-----5--5--5--5--5--5--
D|--2--2--2--2--2-----5--5--5--5--5--5--

D|-----------------------------------------
A|-----------------------------------------
F|-----------------------------------------  
D|-----------------------------------------
A|--9--9--9--9--10----9--9--9--9--9--9--9--
D|--0--0--0--0--0-----5--5--5--5--5--5--5--

Pre-chorus

It's become so obvious that you are so oblivious to yourself
D|--------------------------------------------------------
A|--------------------------------------------------------
F|--------------------------------------------------------
D|--------------------------------------------------------
A|-----2--2--2--2--2--------5--5--5--5--5--5--5--5--5--5--
D|-----2--2--2--2--2--------5--5--5--5--5--5--5--5--5--5--

D|-----------------------------------------
A|-----------------------------------------
F|-----------------------------------------  
D|-----------------------------------------
A|--9--9--9--9--10----9--9--9--9--9--9--9--
D|--0--0--0--0--0-----5--5--5--5--5--5--5--

D|--------------------
A|--------------------
F|--------------------
D|--------------------
A|--8--8--8--7--7--7--
D|--5--5--5--5--5--5--

2st Chorus

I'm tied in a knot      but I'm not gonna get caught calling a
D|--------------0--------------------------------
A|--------------5-----4--------5--------------2--
F|--------------0-----0--------------------------
D|--------------0--------------5--------------2--
A|--------------5-----4--------5--------------2--
D|--------------0-----4--------5--------------2--

Pot kettle black
D|--------------
A|--0--------4--
F|-----------4--
D|--0--------4--
A|--0--------4--
D|--0--------4--

Every song's a comeback, every moment's a little bit later
D|--------------------------------------------------------
A|--2--------------5-----2-----------------5--------------
F|--------------------------------------------------------
D|--2--------------5-----2-----------------5--------------
A|--2--------------5-----2-----------------5--------------
D|--2--------------5-----2-----------------5--------------

Outro

               Every moment's a little bit later
D|-----------------------------------------------
A|--0-----4-----5-----------------0--------------
F|-----------------------------------------------
D|--0-----4-----5-----------------0--------------
A|--0-----4-----5-----------------0--------------
D|--0-----4-----5-----------------0--------------

               Every moment's a little bit later
D|-----------------------------------------------
A|--0-----4-----5-----------------0--------------
F|-----------------------------------------------
D|--0-----4-----5-----------------0--------------
A|--0-----4-----5-----------------0--------------
D|--0-----4-----5-----------------0--------------

               Every moment's a little bit later
D|-----------------------------------------------
A|--0-----4-----5-----------------0--------------
F|-----------------------------------------------
D|--0-----4-----5-----------------0--------------
A|--0-----4-----5-----------------0--------------
D|--0-----4-----5-----------------0--------------

----------------------------------------------------------------------------------------------------
tabs and chords, guitar tabs, music transcription, music technology, deep learning, music information retrieval, transcribe into tabs & chords, chordify, music renditions, songsterr, reverbnation, tabulature, bollywood chords, ultimate guitar, yousician, guitar lessons, acoustic guitar, electric guitar, guitar tuner, 911 tabs